Oops, an error
Loading. Please wait.

Love Surgery Tab

version 2
version 2

Whole song

by GWAR
369 views 1 this week
1 commentread comment
1 2 3 4 5
2 more votes to show rating
add to favorites
launch autoscroll
font size
0
reset
how to read this tab
guitar tuner
Autoscroll
slow
fast
+/-
esc
set tempo
stop
Help us to improve Ultimate-Guitar.com Take our survey!
×
Author
Difficulty
Tuning
intermediate
D# G# C# F# A# D#
Okay. Since no other tab has the full song, I'm going 
to tab it out, so people can finally learn it.


All strings tuned half-step down.


INTRO (PART I)
|---------------------------------------------------|
|---------------------------------------------------|
|--8-8-8-8-8-8-8-8-8-8-8-8-8-8-8-8-8-8-8-8-8-8-8-8--|
|--8-8-8-8-8-8-8-8-8-8-8-8-8-8-8-8-8-8-8-8-8-8-8-8--|
|--6-6-6-6-6-6-6-6-6-6-6-6-6-6-6-6-6-6-6-6-6-6-6-6--|
|---------------------------------------------------|


INTRO (PART II)
|--------------------------------------------|
|--------------------------------------------|
|--------4~~---3~~---------------------------|
|--2~~---4~~---3~~-------4-4-4------4-4-4-5--|
|--2~~---2~~---1~~-------4-4-4------4-4-4-5--|
|--0~~---------------0-0-2-2-2--0-0-2-2-2-3--| x6
PM                   . .        . .


VERSE
|---------------------------------------------------------|
|---------------------------------------------------------|
|---------------------------------------------------------|
|--2--2-2-2-2--2--2-2-2-7\6--6--6-6-6-6-6--7--7-7-7-7/9---|
|--2--2-2-2-2--2--2-2-2-5\4--6--6-6-6-6-6--7--7-7-7-7/9---|
|--0--0-0-0-0--0--0-0-0----0-4--4-4-4-4-4--5--5-5-5-5/7---| x4
PM    . . .       . . .    .    . . .         . . .
                           ^
                      (Hit this note
                       very quickly)


CHORUS
|---------------------------------------------------------------|
|---------------------------------------------------------------|
|--8-8-8-8-8-8-8-8-8-8-8-8-8-8-8-8-8-8-8/9--7--7--7-7--5-5--4---|
|--8-8-8-8-8-8-8-8-8-8-8-8-8-8-8-8-8-8-8/9--7--7--7-7--5-5--4---|
|--6-6-6-6-6-6-6-6-6-6-6-6-6-6-6-6-6-6-6/7--5--5--5-5--3-3--2---|
|---------------------------------------------------------------| x4


Repeat    VERSE
          CHORUS


INTERLUDE (PART I)
(No other tab has from here to the end)
It's kinda harmonized, and there's 2 ways to play this:
|-----------------------------------------------------------|
|-----------------------------------------------------------|
|-----------------------------------------------------------|
|-----------------------------------------------------------|
|--------8p7---7p6-------8p7-5--7-----8p7---7p6-----0-5-7---|
|--0-0-0-----0-----0-0-0----------0-0-----0-----0-0---------| x6
PM   . .     .     . . .          . .     .     . .  

OR:
|--------------------------------------------------------------|
|--------------------------------------------------------------|
|--------10p9---9p8-------10p9-7--9-----10p9---9p8-----0-7-9---|
|--------------------------------------------------------------|
|--------------------------------------------------------------|
|--0-0-0------0-----0-0-0-----------0-0------0-----0-0---------| x6
PM   . .      .     . . .           . .      .     . .


INTERLUDE (PART II)
|---------------------------------------------------------|
|---------------------------------------------------------|
|--8-------8---8--------------8-------8---8---------------|
|--8-------8---8--------------8-------8---8---------------|
|--6-------6---6--------------6-------6---6---------------|
|----0-0-0---0----0-0-0-0-0-0---0-0-0---0----0-0-0-0-0-0--| x2
PM   . . .   .    . . . . . .   . . .   .    . . . . . .


Repeat    INTERLUDE (PART I)


OUTRO (PART I)
|-----------------------------7-------------------------------|
|------8-7~-7-6~-6-5------8-7---7-6~-6-5-------8-7~-7-6~-6-5--|
|----------------------------------------------9-8~-8-7~-7-6--|
|-------------------------------------------------------------|
|-------------------------------------------------------------|
|--0-0----------------0-0-----------------0-0-----------------|


(Not sure about this part)
|--------------------------|
|------5-4~-4-3~-3-2~~~----|
|------6-5~-5-4~-4-3~~~----|
|--------------------------|
|--------------------------|
|--0-0---------------------|


OUTRO (PART II)
(Pretty much the same as the intro, but slightly slower)
|--------------------------------------------|
|--------------------------------------------|
|---------4~~~---3~~~------------------------|
|--2~~~---4~~~---3~~~-------4-4-4---4-4-4-5--|
|--2~~~---2~~~---1~~~-------4-4-4---4-4-4-5--|
|--0~~~-----------------0-0-2-2-2---2-2-2-3--| x6
PM                      . .
   ^      ^      ^
 (These chords could be 
  tremolo picked instead)



Legend
========
PM   | Palm Muting
~    | Hold Note/Vibrato
\    | Slide Down
/    | Slide Up
p    | Pull-Off




Mkay, that's it. I'm working on tabbing the solo that 
plays over the outro. I'll update this tab when I'm done.
Feedback is welcomed.

-- DH
============================================================
Suggest correction
Give kudos to tab author, rate the tab!
1 2 3 4 5
comments
print report bad tab
1 comment total.
0 reply
skumdogminion 73 Oct 06, 2013 02:20 AM

pretty good tab. very helpful man.

guest
You may want to rate the tab now too:
select rating
Wanna post a correction for this tab? Suggest correction