Oops, an error
Loading. Please wait.

Maggots Tab

version 2
version 2

Whole song

by GWAR
774 views 1 this week
no commentswrite comment
1 2 3 4 5
please rate
add to favorites
launch autoscroll
font size
0
reset
how to read this tab
guitar tuner
Autoscroll
slow
fast
+/-
esc
set tempo
stop
Help us to improve Ultimate-Guitar.com Take our survey!
×
Author
Difficulty
Tuning
advanced
D# G# C# F# A# D#
All strings tuned half-step down.



INTRO
|Lead
|---------------------------------------------|
|---------------------------------------------|
|--10-5-7---------------10-5-7----------------|
|--10-5-7---------------10-5-7----------------|
|---8-3-5----------------8-3-5----------------|
|---------5-5-5-5-5-5-5--------6-6-6-6-6-6-6--|
|PM         . . . . . .          . . . . . .
|
|Rhythm
|---------------------------------------------|
|---------------------------------------------|
|---------------------------------------------|
|---------7--------------------8--------------|
|---------7--------------------8--------------|
|---------5--------------------6--------------|


|---------------------------------------------|
|---------------------------------------------|
|--10-5-7---------------10-5-7----------------|
|--10-5-7---------------10-5-7----------------|
|---8-3-5----------------8-3-5----------------|
|---------5-5-5-5-5-5-5--------6-6-6-6-6-6-6--|
|PM         . . . . . .          . . . . . .
|
|---------------------------------------------|
|---------------------------------------------|
|-------7-------------------------------------|
|-------7-7--------------------8--------------|
|-------5-7--------------------8--------------|
|---------5--------------------6--------------|


PRE-VERSE
|---------------------------------------------|
|---------------------------------------------|
|--10-5-7---------------10-5-7----------------|
|--10-5-7---------------10-5-7----------------|
|---8-3-5----------------8-3-5----------------|
|---------5-5-5-5-5-5-5--------6-6-6-6-6-6-6--| x2
PM          . . . . . .          . . . . . .


VERSE x4
|---------------------------------------------|
|---------------------------------------------|
|---------------------------------------------|
|--7-------------7-------------7--------------|
|--7-------------7-------------7--------------|
|--5-5-5-5-5-5-5-5-5-5-5-5-5-5-5-5-5-5-5-5-5--| x2
PM   . . . . . .   . . . . . .   . . . . . .

|-----------------------|
|-----------------------|
|------------------5----|
|--3-------------5-5-5--|
|--3-------------5-3-5--|
|--1-1-1-1-1-1-1-3---3--|
PM   . . . . . .


CHORUS
|---------------------------------------------|
|---------------------------------------------|
|--10-5-7---------------10-5-7----------------|
|--10-5-7---------------10-5-7----------------|
|---8-3-5----------------8-3-5----------------|
|---------5-5-5-5-5-5-5--------6-6-6-6-6-6-6--| x4
PM          . . . . . .          . . . . . .


Repeat     VERSE


SECOND CHORUS
|---------------------------------------------|
|---------------------------------------------|
|--10-5-7---------------10-5-7----------------|
|--10-5-7---------------10-5-7----------------|
|---8-3-5----------------8-3-5----------------|
|---------5-5-5-5-5-5-5--------6-6-6-6-6-6-6--| x3
PM          . . . . . .          . . . . . .

|-------------------------------|
|-------------------------------|
|--10-5-7---------------10-5-7--|
|--10-5-7---------------10-5-7--|
|---8-3-5----------------8-3-5--|
|---------5-5-5-5-5-5-5---------|
PM          . . . . . .        


BREAKDOWN
|----------------------------------------|
|----------------------------------------|
|---------5--------5-----5---------------|
|--3~~--4-5-6~~----5-7-5-5-7-3-3-3-3-3---|
|--3~~--4-3-6~~----3-7-5-3-7-3-3-3-3-3---|
|--1~~--2---4~~------5-3---5-1-1-1-1-1---|

|----------------------|
|----------------------|
|----------------------|
|----------------8--8--|
|----------------8--8--|
|----------------6--6--|


INTERLUDE PART I
|--------------------------------------------|
|--------------------------------------------|
|--------------------------------------------|
|--2-2-2-2-2-2-2-2-2-2-2-2-2-2-2-2-2-2-8--8--|
|--2-2-2-2-2-2-2-2-2-2-2-2-2-2-2-2-2-2-8--8--|
|--0-0-0-0-0-0-0-0-0-0-0-0-0-0-0-0-0-0-6--6--| x8
PM . . . . . . . . . . . . . . . . . .


INTERLUDE PART II
|---------------------------------------------------|   \
|---------------------------------------------------|   |
|---------------------------------------------------|   |
|--5-5-5-5-5-5-5-5-5-5-5-5-4-4-4-4-4-4-3-3-3-3-3-3--|   |
|--5-5-5-5-5-5-5-5-5-5-5-5-4-4-4-4-4-4-3-3-3-3-3-3--|   |
|--3-3-3-3-3-3-3-3-3-3-3-3-2-2-2-2-2-2-1-1-1-1-1-1--|   |
PM . . . . . . . . . . . . . . . . . . . . . . . .       \ 
                                                         /  x2
|--------------------------------------|                |
|--------------------------------------|                |
|--------------------------------------|                |
|--------------8-9---------------8-9---|                |
|--------------8-9---------------8-9---|                |
|--0-0-0-0-0-0-6-7---0-0-0-0-0-0-6-7---|                /
PM . . . . . .       . . . . . .


Repeat     INTERLUDE PART I (x4)
           INTERLUDE PART II


SOLO (Currently working on it)
(Rhythm alternates between both INTERLUDE riffs)


FINAL CHORUS
|---------------------------------------------|
|---------------------------------------------|
|--10-5-7---------------10-5-7----------------|
|--10-5-7---------------10-5-7----------------|
|---8-3-5----------------8-3-5----------------|
|---------5-5-5-5-5-5-5--------6-6-6-6-6-6-6--| x7
PM          . . . . . .          . . . . . .

|-------------------------------|
|-------------------------------|
|--10-5-7---------------10-5-7--|
|--10-5-7---------------10-5-7--|
|---8-3-5----------------8-3-5--|
|---------5-5-5-5-5-5-5---------|
PM          . . . . . .        


ENDING
|------------------|
|------------------|
|---------5--------|
|--3~~--4-5-6~~----|
|--3~~--4-3-6~~----|
|--1~~--2---4~~----|



Legend 
======== 
PM   | Palm Muting 
~    | Hold Note




Feedback and requests (DBX/GWAR/X-Cops/Death Piggy tabs only) are welcomed.

--DH
====================================================
Suggest correction
Give kudos to tab author, rate the tab!
1 2 3 4 5
comments
print report bad tab
guest
You may want to rate the tab now too:
select rating
Please do not post tabs as comments. Select "correction" instead!