Oops, an error
Loading. Please wait.

Meat Sandwich Bass Tab

version 1
version 1

Whole song

Interactive

by GWAR
1,343 views 1 this week
no commentswrite comment
1 2 3 4 5
1 last vote to show rating
add to favorites
launch autoscroll
font size
0
reset
guitar tuner
Autoscroll
slow
fast
+/-
esc
set tempo
stop
Help us to improve Ultimate-Guitar.com Take our survey!
×
Author
-------------------------------------------------------------------------------
Meat Sandwich - GWAR
-------------------------------------------------------------------------------


G-----------  X#=4-|
D------------------|
A-5---5------------|
E-------4--2-------|

MEat..Sandwich
G-----------|    X4
D-----------|
A--3----4-3-|
E-----------|


G---------------------------| X4
D---------------------------|
A-3--3-3-3-3--4-3--3-3-3-3--|
E---------------------------|

G----------------------------|
D----------------------------|
A----------------------------|
E--2--1--1-1-1-1--2--2-2-2-2-|

                                            (this part only played 1st time)
G----------------------------------- X2  ----------|
D----0-1---0------------------1-0---     ----------|
A--3---------3-1-----3-1----------3-     ---3-3--1-|
E------------------------4----------     ----------|

G--------------------------|
D--------------------------|
A-3--3-3-3-3--4-3--3-3-3-3-|
E--------------------------|

G-----------|
D-----------|
A--3----4-3-|
E-----------|

G----------------------------|
D----------------------------|
A----------------------------|
E--2--1--1-1-1-1--2--2-2-2-2-|


G----------------------------------- X3  ----------|
D----0-1---0------------------1-0---     ----------|
A--3---------3-1-----3-1----------3-     ---3-3--1-|
E------------------------4----------     ----------|


G-----------|
D-----------|
A--3----4-3-|
E-----------|

G-----------  X#=4-|
D------------------|
A-5---5------------|
E-------3--2-------|

G-----------|
D-----------|
A--3----4-3-|
E-----------|
Suggest correction
Give kudos to tab author, rate the tab!
1 2 3 4 5
comments
print report bad tab
guest
You may want to rate the tab now too:
select rating
Wanna post a correction for this tab? Suggest correction