Oops, an error
Loading. Please wait.

Penis I See Bass Tab

by GWAR
657 views 1 this week
no commentswrite comment
1 2 3 4 5
3 more votes to show rating
add to favorites
launch autoscroll
font size
0
reset
guitar tuner
Autoscroll
slow
fast
+/-
esc
set tempo
stop
Help us to improve Ultimate-Guitar.com Take our survey!
×
Author
-------------------------------------------------------------------------------
Penis I See - GWAR
-------------------------------------------------------------------------------

intro:
G|---------------|
D|---------------|
A|-3-3-----------|
E|-----1-3-3-1-0-|
main riff
G|------------------------------|
D|------------------------------|
A|-1-1h3-3h5----1-1h3-5p3-------|
E|------------------------------|
chorus
G|--------------------------------------|
D|--------------------------------------|
A|--3-3-3-3-3-3-3-3---------------------|
E|-------------------1-1-1-1-1-1-1-1----|

during the "It's so easy to be the latest atrocity...Penis in me "
G|------------------------------|
D|------------------------------|
A|------------------------------|
E|-1-1h3-3h5----1-1h3-5p3-------|
Suggest correction
Give kudos to tab author, rate the tab!
1 2 3 4 5
comments
print report bad tab
guest
You may want to rate the tab now too:
select rating
Wanna post a correction for this tab? Suggest correction