Oops, an error
Loading. Please wait.

Schools Out bass

by GWAR
3,795 views 3 this week
1 commentread comment
1 2 3 4 5
1 last vote to show rating
add to favorites
×
Save as Personal and add changes to this tab that will be seen only by you. Learn more ›
×
You can save this tab as Personal to edit and correct it or add notes. All changes will be seen only by you. Learn more »
launch autoscroll
font size
0
reset
guitar tuner
edit
Autoscroll
slow
fast
+/-
esc
set tempo
stop
Author
Difficulty
-----------------------------------------------------------------------------
			     School's Out - Gwar
-----------------------------------------------------------------------------
Tabbed By:  bassmasta20
Tuning:  EADG
The song is in order.

Intro
G|---------|  |--|  |--------------------|
D|8~-------|  |--|  |--------------------|
A|6~-------|2x|6>|1x|6---4-6--6---4-6-46\|1x
E|---------|  |--|  |--6--------6----6---|

Verse
G|------------------|  |-------------------|
D|------------------|  |-------------------|
A|6---4-----4-66-46\|3x|6---4-----4-66-4/6\|1x
E|--6---666-----6---|  |--6---666-----6----|

Pre-Chorus
G|---------------------|
D|---------------------|
A|---------------------|1x
E|/7x7x7x7x7x7x7x-9-10>|

Chorus 1
G|--|  |-----|                 |----|  |--------|  |---------|
D|--|  |-----|                 |----|  |--5/6~--|  |---------|
A|9x|1x|9999x|repeat many times|999x|1x|7-------|2x|7~-------|1x
E|--|  |-----|                 |----|  |--------|  |---------|

Bridge 1 (elevens & thirteens)
G|-------1111-11-11|  |1313-13-13-----------|  |1313-13-13------------|
D|99-9-9-----------|  |-----------1111-11-11|  |-----------1111-11-11\|
A|-----------------|4x|---------------------|3x|----------------------|1x
E|-----------------|  |---------------------|  |----------------------|

Guitar Solo
G|--68x-86---|
D|-8------86x|
A|6----------|8x
E|-----------|

Repeat Verse

Chorus 2
G|--|  |     |                 |----------------------|
D|--|  |     |                 |----------------------|
A|9x|1x|9999x|repeat many times|9999~---7~---2~-------|1x
E|--|  |     |                 |----------------------|

Bridge 2 (elevens & thirteens)
G|-------111111111111|  |131313131313-------------|  |131313131313----------|
D|999999-------------|  |-------------111111111111|  |-------------11111111\|
A|-------------------|4x|-------------------------|3x|----------------------|
E|-------------------|  |-------------------------|  |----------------------|

Bridge 2 Continued
G|-------------|  |-------------|  |6>|
D|-------444444|  |-------666666|  |--|
A|222222-------|4x|444444-------|3x|--|1x
E|-------------|  |-------------|  |--|

Chorus 3
G|------------------------------------------|
D|------------------------------------------|
A|---------------222222---------------------|2x
E|2x2222x2222x222------2x2222x2222x222000000|

Chorus 3 Continued
G|----------------------------------------|  |--------------------|
D|----------------------------------------|  |--------------------|
A|---------------2~-----------------------|1x|----------7~---2~---|1x
E|2x2222x2220~--------2x2222x2222x22222222|  |2x2222x222----------|

Chorus 3 Continued
G|-------------------|  |---------------------------|
D|-------------------|  |------7x-9x----------------|
A|-------------------|1x|9x-9x-------7h9x-9x-7h9x-9x|1x
E|2x2222x2222x222222/|  |---------------------------|

Chorus 3 Continued
G|---------------------|
D|---------------------|
A|9x-9x-7~-------7\2-2~|1x
E|---------------------|

| /  slide up
| \  slide down
| h  hammer-on
| p  pull-off
| ~  vibrato
| +  harmonic
| x  Mute note
| >  repeat many times
=============================================================================

            
            
Suggest correction
Creating personal tab
Creating personal tab
You can edit any tab online and save it as your Personal.

You can edit, replace or remove any tab part or add personal notes – all changes will be seen only by you.

Personal tabs can be accessed anytime from any device, even offline.
Learn more »
Give kudos to tab author, rate the tab!
1 2 3 4 5
comments
print report bad tab
1 comment total.
0 reply
bassmastabilljo 523 Jun 18, 2008 12:23 PM

the song is in Eb

guest
You may want to rate the tab now too:
select rating
Wanna post a correction for this tab? Suggest correction