Oops, an error
Loading. Please wait.

Sick Of You bass

version 1
version 1

Whole song

Interactive

by GWAR
3,056 views 6 this week
6 commentsread comments
1 2 3 4 5
x 3
add to favorites
×
Save as Personal and add changes to this tab that will be seen only by you. Learn more ›
×
You can save this tab as Personal to edit and correct it or add notes. All changes will be seen only by you. Learn more »
launch autoscroll
font size
0
reset
guitar tuner
backing track
0:00
0:00
edit
Autoscroll
slow
fast
+/-
esc
set tempo
stop
		           	"Sick of You"
                                by
                               GWAR

>From the album "Scumdogs of the Universe"
Transcribed by:  Jay Misch

         This is an easy song if you can play fast enough. Any questions or comments
 go to riotbass@aol.com. Tell me I did a good job. GWAR RULES! 
  

			Tune down 1/2 step.

     The intro, verses, and outro are all open E's played on different rhythms. 
But this is the chorus.

 G |-------------------------------------|
 D |-------------------------------------|
 A |-----4---5--4--2--0--------4-4---4-4-|
 E |-2---------------------2-2-----2-----|
                        



            
            
Suggest correction
Creating personal tab
Creating personal tab
You can edit any tab online and save it as your Personal.

You can edit, replace or remove any tab part or add personal notes – all changes will be seen only by you.

Personal tabs can be accessed anytime from any device, even offline.
Learn more »
Give kudos to tab author, rate the tab!
1 2 3 4 5
comments
print report bad tab
6 comments total. Showing first comments.
+1 reply
slayerofangels 10 Jun 20, 2007 11:18 AM

doesnt the second part of the chorus go like this?
G:------------------------------------------------------
D:------------------------------------------------------
A:------4-4--2---5---4----------------------------------
E:--2-2-------------------------------------------------

0 reply
Wmurderface666 10 Mar 12, 2008 01:15 PM

the intro, verses, and outro are defiently not open Es played in different rythem nice job on the chorus tho

0 reply
Wmurderface666 10 Mar 12, 2008 01:20 PM

my bad that chorus actually isn't right
G--------------------------
D--------------------------
A---4-4--5-4-2-0----4-4-4-4
E2-2-------------2-2---2---
sorry dude

guest
Wanna post a correction for this tab? Suggest correction