Oops, an error
Loading. Please wait.

Womb With A View tab

version 1
version 1

Whole song

Interactive

by GWAR
4,588 views 6 this week
2 commentsread comments
1 2 3 4 5
x 4
add to favorites
×
Save as Personal and add changes to this tab that will be seen only by you. Learn more ›
×
You can save this tab as Personal to edit and correct it or add notes. All changes will be seen only by you. Learn more »
launch autoscroll
font size
0
reset
how to read this tab
guitar tuner
edit
Autoscroll
slow
fast
+/-
esc
set tempo
stop
-------------------------------------------------------------------------------
                        Womb With A View - GWAR
-------------------------------------------------------------------------------
Tabbed by: Chris "|SpitFire|" Conner

Tuning: E-Flat

NOTICE! I used the "Live From Mt. Fuji" Version to tab the song, so there
might be some differences to the "War Party" Version.
      

Intro:

eb-------------------------------------|
Bb-------------------------------------|
Gb-------------------------------------|
Db-------------------------------------|
Ab-------------------------------------|
Eb--6-0-0-6-0-0-6-0-0-6-0-0-6--6--6----|            

Main Riff:

eb------------------------------------------------------|
Bb------------------------------------------------------|
Gb------------------------------------------------------|
Db-----------------------2------------------------------|
Ab--2--2-2-2-2-2-2---1-2---2---5--5-5-5-5-5-5---0---1-0-|
Eb--0--0-0-0-0-0-0-0---------0-3--3-3-3-3-3-3-3---3-----|x2
       . . . . . .          ^     . . . . . .
      Second Time Stop Here | and play one of the endings below

   Ending A          Ending B               Ending C
eb---------------|-----------------------|-----------------|
Bb---------------|-----------------------|-----------------|
Gb-10-10--7--7---|--10-10--12--7-10--9---|--5--5--5--5-7---|
Db-10-10--7--7---|--10-10--12--7-10--9---|--3--3--3--3-5---|
Ab--8--8--5--5---|---8--8--10--5--8--7---|-----------------|
Eb---------------|-----------------------|-----------------|

Here is when u play these endings:
[0:08]-[0:36] : A - B - C
[0:58]-[1:17] : B - C
[1:45]-[2:08] : A - B - C


Interlude:

eb---------------|--------------------------------------------------------------|
Bb---------------|--------------------------------------------------------------|
Gb---------------|--------------------------------------------------------------|
Db---------------|--------------------------------------------------------------|
Ab---------------|-2---8-8\7-8\7-8-2---8-8\7-8\7-8--3--3--3-6--5----------------|
Eb--6-6\5-6\5-6--|-00006-6\5-6\5-6-00006-6\5-6\5-6--1111111-4--3---6-6-6-6-0-6--|x2
                    ...            ^...              .. ..
  At this point, there is a pinch harmonic on the 7th fret of the Ab-String

Break:

eb---------------------------------------------------------------------------|
Bb---------------------------------------------------------------------------|
Gb---------------------------------------------------------------------------|
Db---------------------------------------------------------------------------|
Ab------------8--8-8------------8--8-8-----------8--8-8------------8--8-8----|
Eb-6-0-0-6-0--6--6-6-6-0-0-6-0--6--6-6--6-0-6-0--6--6-6-6-0-0-6-0--6--6-6----|x2


Guitar 1: [let ring]

eb---------------------------------------------------------------------------|
Bb---------------------------------------------------------------------------|
Gb---------------------------------------------------------------------------|
Db---------------------------------------------------------------------------|
Ab------------8--8-8------------8--8-8-----------8--8-8------------8--8-8----|
Eb-6-0-0-6-0--6--6-6-6-0-0-6-0--6--6-6--6-0-6-0--6--6-6-6-0-0-6-0--6--6-6----|x2

Guitar 2:

   These 3 notes have some wah-effect
eb-0~--------3~---------6~---------------------------------------------------|
Bb---------------------------------------------------------------------------|
Gb---------------------------------------------------------------------------|
Db---------------------------------------------------------------------------|
Ab---------------------------------------------------------------------------|
Eb--------------------------------------6-0-0-6-0-0-6-0-0-6-0-0-6--6--6------|


Second Solo:

eb-0~--0-3-3-2-3-5-3-2k--2-3-2-0-2---0k--0-0-2-0-3-0--12--12--12-12--14-14-14-12-10-12--|
Bb---------------------------------3----------------------------------------------------|

while Guitar 1 plays the main riff


Order:
Intro
Main Riff
Interlude
Main Riff
Break
Second Solo
Main Riff
Interlude
Intro

                   
| /  slide up
| \  slide down
| h  hammer-on
| p  pull-off
| ~  vibrato
| +  harmonic
| x  Mute note
| k  keep picking
===============================================================================


            
            
Suggest correction
Creating personal tab
Creating personal tab
You can edit any tab online and save it as your Personal.

You can edit, replace or remove any tab part or add personal notes – all changes will be seen only by you.

Personal tabs can be accessed anytime from any device, even offline.
Learn more »
comments
print report bad tab
2 comments total.
0 reply
XDeathBloomsX 20 Aug 30, 2007 06:49 PM

You had a weird order, and I didnt really understand it at all. It also seems like you forgot certain parts of th song.

+1 reply
Lrn2play 91 Dec 10, 2007 04:44 PM

the intro solo is

12-0-0-0-13-0-0-0-10-0-0-0-12-0-0-0-12-0-0-0-13-0-0-0-10-0-0-0-12-0-0-0-12-0-0-0-13-0-0-0-10-0-0-0-12-0-0-0-12
--------------------------------------------------------------------------------------------------------------
--------------------------------------------------------------------------------------------------------------
--------------------------------------------------------------------------------------------------------------
--------------------------------------------------------------------------------------------------------------
--------------------------------------------------------------------------------------------------------------

-12-0-0-0-13-0-0-0-10-0-0-0-12-0-0-0-12-0-0-0-13-0-0-0-15-0-0-0-13-0-0-0-17-0-0-0-15-0-0-0-13-0-0-0
---------------------------------------------------------------------------------------------------
---------------------------------------------------------------------------------------------------
---------------------------------------------------------------------------------------------------
---------------------------------------------------------------------------------------------------
---------------------------------------------------------------------------------------------------

13-0-0-0-12------12-12--------------------------------------------------15-14-12---12------------------
-----------15(17)----15(17)15--12----------------------------------------------15--15-12-------------
------------------------------------14(16)14-12/14(16)/14(16)14-12------------------------14-12-14-12-
---------------------------------------------------------------------14--------------------------------
-------------------------------------------------------------------------------------------------------
-------------------------------------------------------------------------------------------------------

-----------------------15-12--15-12---15-12---15-12----------------------
---------------------12-----12------12------12------12-12-12-15-12-------
----14(16)(16)(16)------------------------------------------------------
-------------------------------------------------------------------------
-------------------------------------------------------------------------
-------------------------------------------------------------------------

guest
You may want to rate the tab now too:
select rating
Wanna post a correction for this tab? Suggest correction