Oops, an error
Loading. Please wait.

Hollaback Girl Tab

version 1
version 1

Interactive

4,464 views 3 this week
4 commentsread comments
1 2 3 4 5
x 9
add to favorites
launch autoscroll
font size
0
reset
how to read this tab
guitar tuner
backing track
0:00
0:00
×
Best way to learn
"Hollaback Girl"
Autoscroll
slow
fast
+/-
esc
set tempo
stop
WOOT! This is a very simple tab! dont mess it up!

---0-3-0-3--0-3-0-3---0-3-0-3--0-3-0----0-3-0-3--0-3-0-3--0-|
--2-----0--2-----0---2-----0--2-----0--2-----0--2-----0--2--|
-4--------4--------4--------4--------4--------4--------4----|
------------------------------------------------------------|
------------------------------------------------------------|
------------------------------------------------------------|

i hope you enjoyed this song as much as i do. It sure is a gooden.
this is the Hollaback girl song by gwen. Enjoi!
Suggest correction
comments
print report bad tab
4 comments total. Showing first comments.
0 reply
Lester8 59 Apr 12, 2005 08:00 PM

--------2----------
------4---------4--
--3/4-------4\3----
-------------------
-------------------
-------------------

0 reply
billy_talent77 41 Dec 16, 2006 01:04 PM

it sucked monkey balls. o and it was wrong.

0 reply
john789 10 Oct 02, 2007 05:15 AM

Wrong

guest
You may want to rate the tab now too:
select rating
Wanna post a correction for this tab? Suggest correction