Oops, an error
Loading. Please wait.

Make Me Like You tab

139 views 3 this week
no commentswrite comment
1 2 3 4 5
3 more votes to show rating
add to favorites
×
Save as Personal and add changes to this tab that will be seen only by you. Learn more ›
×
You can save this tab as Personal to edit and correct it or add notes. All changes will be seen only by you. Learn more »
launch autoscroll
font size
0
reset
how to read this tab
guitar tuner
edit
Autoscroll
slow
fast
+/-
esc
set tempo
stop
Author
Difficulty
Chords used in this song (listen for strumming pattern):

Notes in ( ) may be omitted/played with less emphasis

e|-(8)----(6)----(6)---(3)-------|
B|--9------6------8-----4--------|
G|--10-----7------7-----5--------|
D|--10-----8------8-----5--------|
A|--8------8------6-----3--------|
E|---------6---------------------|

    Fm     Bb    EbM7   Cm


e|-(8)----(6)----(6)-------------|
B|--9------6------8-----5--------|
G|--10-----7------7-----5--------|
D|--10-----8------8-----5--------|
A|--8------8------6-----7--------|
E|---------6---------------------|

    Fm     Bb    EbM7   C/E


These are the chords heard in the higher guitar part in the choruses, listen for strumming pattern

e|--11-----10-----10-----8-------|
B|--9------11-----11-----8-------|
G|--10-----10-----12-----8-------|
D|-------------------------------|
A|-------------------------------|
E|-------------------------------|

e|--11-----10-----10-----8-------|
B|--9------11-----11-----5-------|
G|--10-----10-----12-----5-------|
D|-------------------------------|
A|-------------------------------|
E|-------------------------------|


[Intro]

Fm - Bb - EbM7 - Cm


[Verse 1]

(These first four lines are played on bass only)

Fm                          Bb
I was fine before I met you I was broken but fine
Cm
I was lost and uncertain But my heart was still mine
Fm                          Bb
I was free before I met you I was broken but free
Cm
All alone in the clear view, but now you are all I see


(Guitar comes in)

Fm                 Bb
Hey, wait a minute No, you can't do this to me
EbM7               Cm
Hey, wait a minute No, that's not fair
Fm                 Bb
Hey, wait a minute You're on me like jewelry
EbM7               C/E
I really like you, but I'm so scared


[Chorus]

Fm                Bb
Why'd you have to go and make me like you?
EbM7              Cm
Yeah this is a feeling I'm not used to
Fm                Bb
Why'd you have to go and make me like you?
EbM7              C/E
I'm so mad at you cause now you got me missing you


[Verse 2]

(first two lines are played on bass only)

Fm                            Bb
Something I could get used to I could get used to this
Cm
It's getting harder to leave it Your lips on my lips

(guitar comes in)

Fm                          Bb
Oh, I can't believe it How good it could be
Cm
Didn't wanna believe it, but now you are all I see
Fm                 Bb
Hey, wait a minute No, you can't do this to me
EbM7               Cm
Hey, wait a minute No, that's not fair
Fm                 Bb
Hey, wait a minute You're on me like jewelry
EbM7               C/E
I really like you, but I'm so scared


[Chorus](x2)

Fm                Bb
Why'd you have to go and make me like you?
EbM7              Cm
Yeah this is a feeling I'm not used to
Fm                Bb
Why'd you have to go and make me like you?
EbM7              C/E
I'm so mad at you cause now you got me missing you

            
            
Suggest correction
Creating personal tab
Creating personal tab
You can edit any tab online and save it as your Personal.

You can edit, replace or remove any tab part or add personal notes – all changes will be seen only by you.

Personal tabs can be accessed anytime from any device, even offline.
Learn more »
Give kudos to tab author, rate the tab!
1 2 3 4 5
comments
print report bad tab
guest
You may want to rate the tab now too:
select rating
Wanna post a correction for this tab? Suggest correction