Oops, an error
Loading. Please wait.

Cupids Chokehold tab

version 1
version 1

Whole song

23,213 views 3 this week
3 commentsread comments
1 2 3 4 5
x 8
add to favorites
×
Save as Personal and add changes to this tab that will be seen only by you. Learn more ›
×
You can save this tab as Personal to edit and correct it or add notes. All changes will be seen only by you. Learn more »
launch autoscroll
font size
0
reset
how to read this tab
guitar tuner
edit
Autoscroll
slow
fast
+/-
esc
set tempo
stop
Difficulty
Chorus: 

"Take a look at my girlfriend..."
e|-----------------------------------------|
B|-----------------------------------------|
G|-----------------------------------------| x a lot
D|--11--11--9---9---9---7---7---7---7-9-11-| 
A|--11--11--9---9---9---7---7---7---7-9-11-|
E|--9---9---7---7---7---5---5---5---5-7-9--|

Verse:

"It's been some time since we last spoke..."
e|--44--44--22--22--77--77--55--55--|
B|--55--55--44--44--99--99--55--55--|
G|--66--66--44--44--99--99--66--66--|  x a lot
D|----------------------------------|
A|----------------------------------|
E|----------------------------------|

Basically the these two parts over and over again, pretty easy song, fun to play.

            
            
Suggest correction
Creating personal tab
Creating personal tab
You can edit any tab online and save it as your Personal.

You can edit, replace or remove any tab part or add personal notes – all changes will be seen only by you.

Personal tabs can be accessed anytime from any device, even offline.
Learn more »
comments
print report bad tab
3 comments total.
0 reply
*Jordie1* 10 Feb 20, 2007 10:07 PM

yeah this is cool

0 reply
pnkr0cker 2,033 Mar 11, 2007 05:59 PM

missing more of the detailed parts tho so its definetly not 5 stars.

0 reply
mapletree755 31 Apr 09, 2007 02:13 PM

short, missing lots of parts.

guest
Wanna post a correction for this tab? Suggest correction