Oops, an error
Loading. Please wait.

Cupids Chokehold tab

version 2
version 2

Whole song

17,840 views 3 this week
6 commentsread comments
1 2 3 4 5
x 8
add to favorites
×
Save as Personal and add changes to this tab that will be seen only by you. Learn more ›
×
You can save this tab as Personal to edit and correct it or add notes. All changes will be seen only by you. Learn more »
launch autoscroll
font size
0
reset
how to read this tab
guitar tuner
edit
Autoscroll
slow
fast
+/-
esc
set tempo
stop
Difficulty
0:06
e|---------------------------|
B|---------------------------|
G|--6-6--4-4--2-2-2-2/4-6----| x 2
D|--6-6--4-4--2-2-2-2/4-6----|
A|--4-4--2-2--0-0-0-0/2-4----|
E|---------------------------|


0:18
down stroke then up stroke for every 1.
e|--44--44--22--22--77--77--55--55--|
B|--55--55--44--44--99--99--55--55--|
G|--66--66--44--44--99--99--66--66--|  x 8 
D|----------------------------------|
A|----------------------------------|
E|----------------------------------|

1:07
e|---------------------------|
B|---------------------------|
G|--6-6--4-4--2-2-2-2/4-6----| x 4
D|--6-6--4-4--2-2-2-2/4-6----|
A|--4-4--2-2--0-0-0-0/2-4----|
E|---------------------------|

1:31
e|--44--44--22--22--77--77--55--55--|
B|--55--55--44--44--99--99--55--55--|
G|--66--66--44--44--99--99--66--66--|  x 8 
D|----------------------------------|
A|----------------------------------|
E|----------------------------------|

2:07 
e|-------------------------------------|
B|-------------------------------------|
G|-------------------------------------|
D|-------------------------------------|
A|4x8-6x8-7x8-9x4-11x4-12x8-11x8-7x16--|
E|-------------------------------------|

2:29
e|---------------------------|
B|---------------------------|
G|--6-6--4-4--2-2-2-2/4-6----| x 2
D|--6-6--4-4--2-2-2-2/4-6----|
A|--4-4--2-2--0-0-0-0/2-4----|
E|---------------------------|

2:39 guitar I
e|-----------------------------------------------------|
B|-----------------------------------------------------|
G|-----------------------------------------------------|x3
D|-----------------------------------------------------|
A|-2/4444424-2/4444424-2/77777767--2/77774444666622224-|
E|-----------------------------------------------------|
pm..................................
2:37 guitar II
e|-----------------------------------------------------|
B|-----------------------------------------------------|
G|-----------------------------------------------------|x3
D|-----------------------------------------------------|
A|-2/4444424-2/4444424-2/44444424--2/77774444666622224-|
E|-----------------------------------------------------|
no palmuting and clean effect and it also comes in like
one secodnd before.

3:29
e|---------------------------|
B|---------------------------|
G|--6-6--4-4--2-2-2-2/4-6----| x 4
D|--6-6--4-4--2-2-2-2/4-6----|
A|--4-4--2-2--0-0-0-0/2-4----|
E|---------------------------|

It's not completly right at 2:37 but pretty close
this was tabed by the great dylon hailing from g-town m.b.

            
            
Suggest correction
Creating personal tab
Creating personal tab
You can edit any tab online and save it as your Personal.

You can edit, replace or remove any tab part or add personal notes – all changes will be seen only by you.

Personal tabs can be accessed anytime from any device, even offline.
Learn more »
comments
print report bad tab
6 comments total. Showing first comments.
0 reply
Pickleboy03 80 Mar 26, 2007 07:02 PM

You're missing a lot of parts

0 reply
mapletree755 31 Apr 09, 2007 02:18 PM

at 3:24 is goes (on the a string) (11)X4 (7)X4 (9)X4 (6)X4 then end on the route note D (4)

0 reply
zakula 10 May 12, 2007 05:13 AM

really cool song, if somebody does a guitar pro tab of it, we would be all gratefull ! ! ! :)

guest
Wanna post a correction for this tab? Suggest correction