Oops, an error
Loading. Please wait.

Lazarus Ze Gitan tab

733 views 3 this week
no commentswrite comment
1 2 3 4 5
2 more votes to show rating
add to favorites
×
Save as Personal and add changes to this tab that will be seen only by you. Learn more ›
×
You can save this tab as Personal to edit and correct it or add notes. All changes will be seen only by you. Learn more »
launch autoscroll
font size
0
reset
how to read this tab
guitar tuner
edit
Autoscroll
slow
fast
+/-
esc
set tempo
stop
Great song from Gym Class Heroes’ latest album The Papercut Chronicles II
I tabbed this by ear so it may not be 100% perfect but I think it sounds pretty good

Guitar 1 (Clean) Capo 6th fret
Intro
(0.00 – 0.19)
e---0----------0----------3----------2--------------|
B---0----------1----------1----------3--------------|
G---0----------2----------0----------2--------------|    (x2)
D---2----------2----------2----------0--------------|
A---2----------0----------3-------------------------|
E---0-----------------------------------------------|

Verse 1
(0.19 – 0.59)
e---0----0------0----0-0--0-0-0----0----0-------0----0-0--0-0-0-------------|
B---0----0------0----0-0--0-0-0----1----1-------1----1-1--1-1-1-------------|
G---0----0------0----0-0--0-0-0----2----2-------2----2-2--2-2-2-------------|
D---2----2------2----2-2--2-2-2----2----2-------2----2-2--2-2-2-------------|
A---2----2------2----2-2--2-2-2----0----0-------0----0-0--0-0-0-------------|
E---0----0------0----0-0--0-0-----------------------------------------------|

e---3----3------3----3-3--3-3-3----2----2-------2----2-2--2-2-2-------------|
B---1----1------1----1-1--1-1-1----3----3-------3----3-3--3-3-3-------------|
G---0----0------0----0-0--0-0-0----2----2-------2----2-2--2-2-2-------------|
D---2----2------2----2-2--2-2-2----0----0-------0----0-0--0-0-0-------------|
A---3----3------3----3-3--3-3-3---------------------------------------------|
E---------------------------------------------------------------------------|
(x4)

Chorus 1
(0.59 – 1.18)
e---0----0------0----0-0--0-0-0----0-----0-------0----0-0--0-0-0------------|
B---0----0------0----0-0--0-0-0----1-----1-------1----1-1--1-1-1------------|
G---0----0------0----0-0--0-0-0----2-----2-------2----2-2--2-2-2------------|
D---2----2------2----2-2--2-2-2----2-----2-------2----2-2--2-2-2------------|
A---2----2------2----2-2--2-2-2----0-----0-------0----0-0--0-0-0------------|
E---0----0------0----0-0--0-0-0---------------------------------------------|

e---3----3------3----3-3--3-3-3----2-----2-------2----2-2--2-2-2------------|
B---1----1------1----1-1--1-1-1----3-----3-------3----3-3--3-3-3------------|
G---0----0------0----0-0--0-0-0----2-----2-------2----2-2--2-2-2------------|
D---2----2------2----2-2--2-2-2----0-----0-------0----0-0--0-0-0------------|
A---3----3------3----3-3--3-3-3---------------------------------------------|
E---------------------------------------------------------------------------|
(x2)

Pre-verse 2
(1.18 – 1.23)
e--------3------3------3------3------3------3------3------3---------|
B----5--------------5--------------5--------------5-----------------|
G-----------4--------------4--------------4--------------4----------|
D-------------------------------------------------------------------|
A-------------------------------------------------------------------|
E-------------------------------------------------------------------|

Verse 2
(1.23 – 2.02)
e---0----0------0----0-0--0-0-0----0-----0-------0----0-0--0-0-0------------|
B---0----0------0----0-0--0-0-0----1-----1-------1----1-1--1-1-1------------|
G---0----0------0----0-0--0-0-0----2-----2-------2----2-2--2-2-2------------|
D---2----2------2----2-2--2-2-2----2-----2-------2----2-2--2-2-2------------|
A---2----2------2----2-2--2-2-2----0-----0-------0----0-0--0-0-0------------|
E---0----0------0----0-0--0-0-0---------------------------------------------|

e---3----3------3----3-3--3-3-3----2-----2-------2---2---2------------------|
B---1----1------1----1-1--1-1-1----3-----3-------3---3---3------------------|
G---0----0------0----0-0--0-0-0----2-----2-------2---2---2------------------|
D---2----2------2----2-2--2-2-2----0-----0-------0---0---0------------------|
A---3----3------3----3-3--3-3-3---------------------------------------------|
E---------------------------------------------------------------------------|

e---0----0------0----0-0--0-0-0----0-----0-------0----0-0--0-0-0------------|
B---0----0------0----0-0--0-0-0----1-----1-------1----1-1--1-1-1------------|
G---0----0------0----0-0--0-0-0----2-----2-------2----2-2--2-2-2------------|
D---2----2------2----2-2--2-2-2----2-----2-------2----2-2--2-2-2------------|
A---2----2------2----2-2--2-2-2----0-----0-------0----0-0--0-0-0------------|
E---0----0------0----0-0--0-0-0---------------------------------------------|
                                                                  \
                                                                   x2
                                                                  /
e---3----3------3----3-3--3-3-3----2-----2-------2----2-2--2-2-2------------|
B---1----1------1----1-1--1-1-1----3-----3-------3----3-3--3-3-3------------|
G---0----0------0----0-0--0-0-0----2-----2-------2----2-2--2-2-2------------|
D---2----2------2----2-2--2-2-2----0-----0-------0----0-0--0-0-0------------|
A---3----3------3----3-3--3-3-3---------------------------------------------|
E---------------------------------------------------------------------------|

e---0----0------0----0-0--0-0-0----0-----0-------0----0-0--0-0-0------------|
B---0----0------0----0-0--0-0-0----1-----1-------1----1-1--1-1-1------------|
G---0----0------0----0-0--0-0-0----2-----2-------2----2-2--2-2-2------------|
D---2----2------2----2-2--2-2-2----2-----2-------2----2-2--2-2-2------------|
A---2----2------2----2-2--2-2-2----0-----0-------0----0-0--0-0-0------------|
E---0----0------0----0-0--0-0-0---------------------------------------------|

e---3----3------3----3-3--3-3-3---------------------------------------------|
B---1----1------1----1-1--1-1-1---------------------------------------------|
G---0----0------0----0-0--0-0-0---------------------------------------------|
D---2----2------2----2-2--2-2-2---------------------------------------------|
A---3----3------3----3-3--3-3-3---------------------------------------------|
E---------------------------------------------------------------------------|

Chorus 2
(2.02 – 2.22)
e---0----0------0----0-0--0-0-0----0-----0-------0----0-0--0-0-0------------|
B---0----0------0----0-0--0-0-0----1-----1-------1----1-1--1-1-1------------|
G---0----0------0----0-0--0-0-0----2-----2-------2----2-2--2-2-2------------|
D---2----2------2----2-2--2-2-2----2-----2-------2----2-2--2-2-2------------|
A---2----2------2----2-2--2-2-2----0-----0-------0----0-0--0-0-0------------|
E---0----0------0----0-0--0-0-0---------------------------------------------|

e---3----3------3----3-3--3-3-3----2-----2-------2----2-2--2-2-2------------|
B---1----1------1----1-1--1-1-1----3-----3-------3----3-3--3-3-3------------|
G---0----0------0----0-0--0-0-0----2-----2-------2----2-2--2-2-2------------|
D---2----2------2----2-2--2-2-2----0-----0-------0----0-0--0-0-0------------|
A---3----3------3----3-3--3-3-3---------------------------------------------|
E---------------------------------------------------------------------------|
(x2)

Pre-bridge
(2.22 – 2.27)
Separate guitar 3 plays riff
Bridge
(2.27 – 2.51)
e---0-----0------0----0---0-0---0-0-0---3-----3------3----2---2---2---2-2-2-|
B---1-----1------1----1---1-1---1-1-1---1-----1------1----3---3---3---3-3-3-|
G---2-----2------2----2---2-2---2-2-2---0-----0------0----2---2---2---2-2-2-|
D---2-----2------2----2---2-2---2-2-2---2-----2------2----0---0---0---0-0-0-|
A---0-----0------0----0---0-0---0-0-0---3-----3------3----------------------|
E---------------------------------------------------------------------------|

e---0-----0------0----0---0-0--0-0-0---0------0------0----0---0-0--0-0-0----|
B---0-----0------0----0---0-0--0-0-0---0------0------0----0---0-0--0-0-0----|
G---0-----0------0----0---0-0--0-0-0---0------0------0----0---0-0--0-0-0----|
D---2-----2------2----2---2-2--2-2-2---2------2------2----2---2-2--2-2-2----|
A---2-----2------2----2---2-2--2-2-2---2------2------2----2---2-2--2-2-2----|
E---0-----0------0----0---0-0--0-0-0---0------0------0----0---0-0--0-0-0----|

e---0-----0------0----0---0-0--0-0-0---3------3------3----2---2-2--2-2-2----|
B---1-----1------1----1---1-1--1-1-1---1------1------1----3---3-3--3-3-3----|
G---2-----2------2----2---2-2--2-2-2---0------0------0----2---2-2--2-2-2----|
D---2-----2------2----2---2-2--2-2-2---2------2------2----0---0-0--0-0-0----|
A---0-----0------0----0---0-0--0-0-0---3------3------3----------------------|
E---------------------------------------------------------------------------|

e---0-----0------0----0---0-0--0-0-0---0------0------0----0---0-0--0-0-0----|
B---0-----0------0----0---0-0--0-0-0---0------0------0----0---0-0--0-0-0----|
G---0-----0------0----0---0-0--0-0-0---0------0------0----0---0-0--0-0-0----|
D---2-----2------2----2---2-2--2-2-2---2------2------2----2---2-2--2-2-2----|
A---2-----2------2----2---2-2--2-2-2---2------2------2----2---2-2--2-2-2----|
E---0-----0------0----0---0-0--0-0-0---0------0------0----0---0-0--0-0-0----|

e---0-----0------0----0---0-0--0-0-0---3--3--3-----3----2---2---------------|
B---1-----1------1----1---1-1--1-1-1---1--1--1-----1----3---3---------------|
G---2-----2------2----2---2-2--2-2-2---0--0--0-----0----2---2---------------|
D---2-----2------2----2---2-2--2-2-2---2--2--2-----2----0---0---------------|
A---0-----0------0----0---0-0--0-0-0---3--3--3-----3------------------------|
E---------------------------------------------------------------------------|

Chorus 3
(2.51 – 3.11)
e---0-----0------0----0-0--0-0-0----0-----0-------0----0-0--0-0-0-----------|
B---0-----0------0----0-0--0-0-0----1-----1-------1----1-1--1-1-1-----------|
G---0-----0------0----0-0--0-0-0----2-----2-------2----2-2--2-2-2-----------|
D---2-----2------2----2-2--2-2-2----2-----2-------2----2-2--2-2-2-----------|
A---2-----2------2----2-2--2-2-2----0-----0-------0----0-0--0-0-0-----------|
E---0-----0------0----0-0--0-0-0--------------------------------------------|

e---3-----3------3----3-3--3-3-3----2-----2-------2----2-2--2-2-2-----------|
B---1-----1------1----1-1--1-1-1----3-----3-------3----3-3--3-3-3-----------|
G---0-----0------0----0-0--0-0-0----2-----2-------2----2-2--2-2-2-----------|
D---2-----2------2----2-2--2-2-2----0-----0-------0----0-0--0-0-0-----------|
A---3-----3------3----3-3--3-3-3--------------------------------------------|
E---------------------------------------------------------------------------|
(x2)

Outro
(3.11 – 3.31)
e---0-----0------0----0-0--0-0-0----0-----0-------0----0-0--0-0-0-----------|
B---0-----0------0----0-0--0-0-0----1-----1-------1----1-1--1-1-1-----------|
G---0-----0------0----0-0--0-0-0----2-----2-------2----2-2--2-2-2-----------|
D---2-----2------2----2-2--2-2-2----2-----2-------2----2-2--2-2-2-----------|
A---2-----2------2----2-2--2-2-2----0-----0-------0----0-0--0-0-0-----------|
E---0-----0------0----0-0--0-0-0--------------------------------------------|

e---3-----3------3----3-3--3-3-3----2-----2-------2----2-2--2-2-2-----------|
B---1-----1------1----1-1--1-1-1----3-----3-------3----3-3--3-3-3-----------|
G---0-----0------0----0-0--0-0-0----2-----2-------2----2-2--2-2-2-----------|
D---2-----2------2----2-2--2-2-2----0-----0-------0----0-0--0-0-0-----------|
A---3-----3------3----3-3--3-3-3--------------------------------------------|
E---------------------------------------------------------------------------|
(x2)

Outro fading out (Just guitar 1 heard)
(3.31 – 3.50)
e---0-----0------0----0-0--0-0-0----0-----0-------0----0-0--0-0-0-----------|
B---0-----0------0----0-0--0-0-0----1-----1-------1----1-1--1-1-1-----------|
G---0-----0------0----0-0--0-0-0----2-----2-------2----2-2--2-2-2-----------|
D---2-----2------2----2-2--2-2-2----2-----2-------2----2-2--2-2-2-----------|
A---2-----2------2----2-2--2-2-2----0-----0-------0----0-0--0-0-0-----------|
E---0-----0------0----0-0--0-0-0--------------------------------------------|

e---3-----3------3----3-3--3-3-3----2-----2-------2----2-2--2-2-2-----------|
B---1-----1------1----1-1--1-1-1----3-----3-------3----3-3--3-3-3-----------|
G---0-----0------0----0-0--0-0-0----2-----2-------2----2-2--2-2-2-----------|
D---2-----2------2----2-2--2-2-2----0-----0-------0----0-0--0-0-0-----------|
A---3-----3------3----3-3--3-3-3--------------------------------------------|
E---------------------------------------------------------------------------|
(x2)



Guitar 2 (Distorted)
Intro
(0.00 – 0.19)
e--------------------------------------------------------------------|
B--------------9~~~~~~~----------------------------------------------|
G--------6//10-----------8b(10)r8--6--8--10--8-6---------------------|
D-------------------------------------------------8~~~\\6~~~---------|
A--------------------------------------------------------------------|
E--------------------------------------------------------------------|

Verse 1
(0.19 – 0.48)
No guitar
(0.48 – 0.59)
e---------------9---------------11---------------9-----9--8-----------------|
B--11--11--11-------11--11--11-------11--11--11-------------9---------------|
G----10--10--10---10--10--10--10---10--10--10--10---10--------8-------------|
D---------------------------------------------------------------11--10--8---|
A---------------------------------------------------------------------------|
E---------------------------------------------------------------------------|

Chorus 1
(0.59 – 1.18)
e-------------------------------------------------------------|
B-------------------------------------------------------------|
G---------------8------------------11-------------10~---------|    (x2)
D---8-----------8------------------11-------------10~---------|
A---8-----------6----6--8-8/11-----9---------------8~---------|
E---6----6--8---------------------------9----8--9-------------|

Pre-verse 2
(1.18 – 1.23)
No guitar

Verse 2
(1.23 – 1.42)
No guitar
(1.42 - 2.02)
e---------------------9----------------------11----------------------9------|
B--9--11---11---11h12---11--11-----11---11h12---11-9-11---11---11h12--------|
G-------------10----------10----------10---------------------10-------------|
D---------------------------------------------------------------------------|
A---------------------------------------------------------------------------|
E---------------------------------------------------------------------------|

Previous chorus melody plays in the background
e-------------------9-------------------11------------------9-9-8-----------|
B--9--11---11--11h12--11--11---11--11h12--11-9-11---11--11h12----9----------|
G------------10---------10-------10-------------------10----------10-8------|
D---------------------------------------------------------------------11-8--|
A---------------------------------------------------------------------------|
E---------------------------------------------------------------------------|

Chorus 2
(2.02 – 2.22)
e-------------------------------------------------------------|
B-------------------------------------------------------------|
G---------------8-------------------11-------------10~--------|    (x2)
D---8-----------8-------------------11-------------10~--------|
A---8-----------6----6--8-8/11------9--------------8~---------|
E---6----6--8---------------------------9----8--9-------------|

Pre-bridge
(2.22 – 2.27)
No guitar

Bridge
(2.27 – 2.51)
Smoothly
e---------------------------------------------------------------------------|
B-----------------8b(9)-7----6b(7)r---4/6-------9\7-------------------------|
G----------//10-------------------------------------------------------------|
D---------------------------------------------------------------------------|
A---------------------------------------------------------------------------|
E---------------------------------------------------------------------------|

Chorus 3
(2.51 – 3.11)
e-------------------------------------------------------------|
B-------------------------------------------------------------|
G---------------8-------------------11-------------10~--------|    (x2)
D---8-----------8-------------------11-------------10~--------|
A---8-----------6----6--8-8/11------9--------------8~---------|
E---6----6--8---------------------------9----8--9-------------|

Outro
(3.11 – 3.31)
e-------------------------------------------------------------------|
B-------------------------------------------------------------------|
G------------------8-------------11------------10-------------------|   (x2)
D---8--------------8-------------11------------10-------------------|
A---8--------------6----6--8--9--9-------------8--------------------|
E---6----6--8--9--------------------------8--9-----11--9--8--4--6---|

e----------------------|
B----------------------|
G----------------------|
D-----8\---------------|
A-----8\---------------|
E-----6\---------------|

Outro fading out (Just guitar 1 heard)
(3.31 – 3.50)
No guitar



Guitar 3 (Extras)
Verse 2
(1.23 – 1.52)
No guitar
(1.52 - 2.02)
e---------------9-----------------11----------------9-----9-8---------------|
B--11--11--11--------11--11--11--------11--11--11-------------9-------------|
G----10--10--10----10--10--10--10----10--10--10--10----10-------8-----------|
D-----------------------------------------------------------------11--10--8-|
A---------------------------------------------------------------------------|
E---------------------------------------------------------------------------|

Pre-bridge
(2.22 – 2.27)
e------------------------------------------------------------|
B------------------------------------------------------------|
G------------------------------------------------------------|
D---------------8/10\8------------------8/10\8---------------|
A-------------8--------8--------------8--------8-------------|
E-----6--8--9------------9----6--8--9------------9-----------|

Bridge
(2.27 – 2.51)
e------------------------------------------------------------|
B------------------------------------------------------------|
G---------------8/10\8---------------------------------------|
D-------------8--------8-------------------------------------|
A-----6--8--9------------9---8--9--8--6--8--6----------------|
E----------------------------------------------9--8----------|

e------------------------------------------------------------|
B------------------------------------------------------------|
G------------------------------------------------------------|
D---------------8/10\8------------------8/10\8---------------|
A-------------8--------8--------------8--------8-------------|
E-----6--8--9------------9----6--8--9------------9-----------|

e------------------------------------------------------------|
B------------------------------------------------------------|
G---------------8/10\8---------------------------------------|
D-------------8--------8-------------------------------------|
A-----6--8--9------------9---8--9--8--6--8--6----------------|
E----------------------------------------------9--8----------|

e------------------------------------------------------------|
B------------------------------------------------------------|
G------------------------------------------------------------|
D---------------8/10\8------------------8/10\8---------------|
A-------------8--------8--------------8--------8-------------|
E-----6--8--9------------9----6--8--9------------9-----------|


e------------------------------------------------------------|
B------------------------------------------------------------|
G---------------8/10\8---------------------------------------|
D-------------8--------8-------------------------------------|
A-----6--8--9------------9-----------------------------------|
E------------------------------------------------------------|

Thanks for checking out the tab!
If you have any corrections or comments then feel free to let me know :)
Enjoy!

            
            
Suggest correction
Creating personal tab
Creating personal tab
You can edit any tab online and save it as your Personal.

You can edit, replace or remove any tab part or add personal notes – all changes will be seen only by you.

Personal tabs can be accessed anytime from any device, even offline.
Learn more »
Give kudos to tab author, rate the tab!
1 2 3 4 5
comments
print report bad tab
guest
You may want to rate the tab now too:
select rating
Wanna post a correction for this tab? Suggest correction