Oops, an error
Loading. Please wait.

Queen And I tab

version 2
version 2

Whole song

10,851 views 6 this week
4 commentsread comments
1 2 3 4 5
x 5
add to favorites
×
Save as Personal and add changes to this tab that will be seen only by you. Learn more ›
×
You can save this tab as Personal to edit and correct it or add notes. All changes will be seen only by you. Learn more »
launch autoscroll
font size
0
reset
how to read this tab
guitar tuner
edit
Autoscroll
slow
fast
+/-
esc
set tempo
stop
-------------------------------------------------------------------------------
                             The Queen and I - Gym Class Heroes
-------------------------------------------------------------------------------
Tabbed by: justgyro
Email: justgyro@hotmail.com

Tuning: Standard

This is a really cool song by Gym Class Heroes from the album As Cruel As School
I recently heard a live acoustic version of it and thought it would be cool to learn but since
tabs I've found for it seem to be off a little, I tried to figure it out myself. This is 
first tab on here so I dunno if it'll be much better but it sounds at least 95%
to me. Feel free to fill me in with any comments or corrections u think need to be made. Enjoy!!

Intro/Main Riff: (played for the rap verses-listen to the song for the rythm)
|--5-5---5-5-5--------|
|--5-5---5-5-5--------|
|--5-5---5-5-5--------|
|--7-7---7-7-7--------|
|--7-7---7-7-7--------|
|--5-5---5-5-5--------|

Chorus:
|----------------------------12-12-10-10-8-8-----------------------------------------|
|----------------12-12-10-10-----------------12-12-10-10-9-9-------------------------|
|------10-10-9-9----------------------------------------------10-10-9-9--------------|
|10-10------------------------------------------------------------------12-12-10-10--|
|------------------------------------------------------------------------------------|
|------------------------------------------------------------------------------------|

---------------------------------------------12-12-----------------------------------|
----------------------------------12-12-9-9--------12-10-9---------------------------|
---------------------12-12-10-10---------------------------10-9----------------------|
9-9-------12-12-9-9---------------------------------------------12-10-9--------------|
----11-11----------------------------------------------------------------12----------|
-------------------------------------------------------------------------------------|

Bridge:
|-7-7-7--5--0---------0---5-5-5--5--5---------- |-8-8-8--6----6-----6-----6-6-6--5----5--|(cd version:just play first part of bridge 4x)
|-7-7-7--5------5---------7-7-7--5------5------------------------------------------------|
|-9-9-9--7--------7-------7-7-7--7--------7----------------------------------------------|(acoustic version: play first part twice after
|-------------------------------- 7------------------------------------------------------| playing the full bridge once)
|-------------------------------- 5------------------------------------------------------|

-7-7-7--5--0---------0--5-5-5--5-------------------------------------------------|
-8-8-8--6----6-----6----6-6-6--5-------------- -7-7-7--5------5--------7-7-7--5--|
-9-9-9--7--------7------7-7-7--7-------------------------------------------------|
------------------------------- 7------------------------------------------------|
------------------------------- 5------------------------------------------------|

Solo:
|--------10(x16)-----------------------------------------|
|13(x16)---------12(x16)--12-10-9------------------------|
|---------------------------------10-9-------------------|
|--------------------------------------12-10-9-----------|
|----------------------------------------------12--------|
|--------------------------------------------------------|

Outro
|-5-5-5-|
|-5-5-5-|
|-5-5-5-|
|-7-7-7-|
|-7-7-7-|
|-5-5-5-|

Order:
Main Riff (x26)
Chorus (x2)
Main Riff (x26)
Chorus (x2)
Bridge (x2)
Solo
Chorus (x3)
Outro (played immediately after the last chorus of acoustic version)

            
            
Suggest correction
Creating personal tab
Creating personal tab
You can edit any tab online and save it as your Personal.

You can edit, replace or remove any tab part or add personal notes – all changes will be seen only by you.

Personal tabs can be accessed anytime from any device, even offline.
Learn more »
comments
print report bad tab
4 comments total. Showing first comments.
0 reply
justgyro 10 Jun 08, 2007 09:33 AM

bridge got messed up somehow once it was uploaded. just copy into a text editing program and on the first part where the " |-8-8" starts, press enter. those are the notes for the B string.

+1 reply
justgyro 10 Jun 08, 2007 09:37 AM

should look like this:

|-7-7-7--5--0---------0---5-5-5--5--5----------|
|-8-8-8--6----6-----6-----6-6-6--5----5--------|
|-7-7-7--5------5---------7-7-7--5------5------|
|-9-9-9--7--------7-------7-7-7--7--------7----|
|---------------------------------7-------------|
|---------------------------------5-------------|

-7-7-7--5--0---------0--5-5-5--5---------------|
-8-8-8--6----6-----6----6-6-6--5---------------|
-7-7-7--5------5--------7-7-7--5---------------|
-9-9-9--7--------7------7-7-7--7---------------|
--------------------------------7---------------|
--------------------------------5---------------|

0 reply
justgyro 10 Jun 08, 2007 09:42 AM

Aminor @ the end there.. 7 and 5 are off a bit.

guest
Wanna post a correction for this tab? Suggest correction