Oops, an error
Loading. Please wait.
We have Chord Pro version of Stereo Hearts.
It's the closest thing you can get to the original song and it has interactive parts. Check out the tab »
×
4,117 views 1 this week
1 commentread comment
1 2 3 4 5
x 3
add to favorites
×
Save as Personal and add changes to this tab that will be seen only by you. Learn more ›
×
You can save this tab as Personal to edit and correct it or add notes. All changes will be seen only by you. Learn more »
launch autoscroll
font size
0
reset
guitar tuner
edit
Autoscroll
slow
fast
+/-
esc
set tempo
stop
Author
Difficulty
Intro
G|----------------|
D|----------------|
A|----------------|
E|9---5---0---7---| 4x

Verse
G|--------------------------|
D|--------------------------|
A|--------------------------|
E|5-5-5-000-00-2-2-2-000-00-| 5x

G|--------------------------|
D|--------------------------|
A|--------------------------|
E|5-5-5-000-00-2-2-2-0009750|

Chorus
G|----------------|
D|----------------|
A|----------------|
E|9---5---0---7---| 4x

G|----------------|
D|----------------|
A|-----9-7--7--7--|
E|5-5-------------|

G|----------------|
D|----------------|
A|-----9-5~5/97-5*|
E|5-5-------------|

Pre-verse
G|----------------|
D|----------------|
A|----------------|
E|-----x-xx-x-xx-x|

Verse

Chorus (keep the final note ringing into the verse)

Verse (only last 2 lines, silent for the first 4)

Chorus

Credits to Ryji Katana, he figured out how to play it, I just wrote out the tabs.
Suggest correction
Creating personal tab
Creating personal tab
You can edit any tab online and save it as your Personal.

You can edit, replace or remove any tab part or add personal notes – all changes will be seen only by you.

Personal tabs can be accessed anytime from any device, even offline.
Learn more »
Give kudos to tab author, rate the tab!
1 2 3 4 5
comments
print report bad tab
1 comment total.
0 reply
tonybassist13 10 Mar 07, 2013 06:05 PM

the tuning is suppose to be drop d

guest
You may want to rate the tab now too:
select rating
Wanna post a correction for this tab? Suggest correction