Oops, an error
Loading. Please wait.

Liquid Swords Chords

by GZA
2,209 views 3 this week
no commentswrite comment
1 2 3 4 5
1 last vote to show rating
add to favorites
launch autoscroll
font size
0
reset
transpose
0
reset
display chords
guitar tuner
Autoscroll
slow
fast
+/-
esc
set tempo
stop
Help us to improve Ultimate-Guitar.com Take our survey!
×
|-1-1-1-1-1-1-1-1-1-2-2-2-2-2-2-2-2-|
|-1-1-1-1-1-1-1-1-1-2-2-2-2-2-2-2-2-|
|-2-2-2-2-2-2-2-2-2-3-3-3-3-3-3-3-3-|
|-3-3-3-3-3-3-3-3-3-4-4-4-4-4-4-4-4-|
|-----------------------------------|
|-----------------------------------|

It just repeats F and F# upstrokes. On bass you can play

}------------------------------|
|------------------------------|
|-8--8--8-8-8--9--9--9-9-9-----|
|------------------------------|
|------------------------------|
|------------------------------|

This is everything except for that intro part
Suggest correction
Give kudos to tab author, rate the tab!
1 2 3 4 5
comments
print report bad tab
guest
You may want to rate the tab now too:
select rating
Wanna post a correction for this tab? Suggest correction