Oops, an error
Loading. Please wait.

I See It In Us Bass Tab

version 1
version 1

Whole song

Interactive

by H2O
145 views 1 this week
no commentswrite comment
1 2 3 4 5
please rate
add to favorites
launch autoscroll
font size
0
reset
guitar tuner
Autoscroll
slow
fast
+/-
esc
set tempo
stop
Help us to improve Ultimate-Guitar.com Take our survey!
×
Author
Difficulty
novice
-------------------------------------------------------------------------------
                             I See it in Us - H2O
-------------------------------------------------------------------------------
Tabbed by: BlindDog95
E-mail: sta_nikola@yahoo.com

Tuning: Standard

Note* I tabbed every note that is played and the exact number of times it's strummed.
I also tried to help you with strumming on some places, but the most times you will have 
to listen to the CD and figure it out.
I think that you can also figure out which part is played when by yourself.


Intro:
G|---------------------------------------------------------------------------|
D|---------------------------------------------------------------------------|
A|---------------------------------------------------------------------------|
E|--2-2--2-2--2-2--2-2--2-2--2-2--2-2--2-2--2-2--2-2--2-2--------------------|

G|---------------------------------------------------------------------------|
D|---------------------------------------------------------------------------|
A|----------2-2-2-2-2-2-2-2--------------------------------------------------|
E|--0--0-0-------------------2-2-2-2-2-2-2-2-2-2-2-2-------------------------|

Chorus:
G|---------------------------------------------------------------------------|
D|---------------------------------------------------------------------------|
A|---------------------------------------------------------------------------|
E|--2-2-2-2-2-2-2-2-2-2-2-2--2-2-2-2-2-2-2-2-2-2-2-2--2-2-2-2-2-2-2-2-2-2-2-2|

G|---------------------------------------------------------------------------|
D|---------------------------------------------------------------------------|
A|----------2-2-2-2-2-2-2-2--------------------------------------------------|
E|--0--0-0-------------------2-2-2-2-2-2-2-2-2-2-2-2-------------------------|

Verse:
G|---------------------------------------------------------------------------|
D|---------------------------------------------------------------------------|
A|-------------2-2-2-2-2-2-2-2-----------------------------------------------|
E|--2-2--5--2----------------------------------------------------------------|

Bridge:
G|---------------------------------------------------------------------------|
D|---------------------------------------------------------------------------|
A|--7-7-7------------7-7-7------------7-7-7----------------------------------|
E|---------2--2-2-2---------2--2-2-2---------2--2-2-2--0-0-0-0-0-0-0-0-------|

Breakdown:
G|---------------------------------------------------------------------------|
D|---------------------------------------------------------------------------|
A|-------3-3-3-3-3-3-------------3-3-3-3-3-3-------------3-3-3-3-3-3---------|
E|--7/2---------------2-2-2-2-2---------------2-2-2-2-2----------------------|

G|---------------------------------------------------------------------------|
D|---------------------------------------------------------------------------|
A|-------------3-3-3-3-3-3-------------3-3-3-3-3-3-----------3-3-3-3-3-3-----|
E|--2-2-2-2-2---------------2-2-2-2-2---------------0-2-2-2------------------|

G|---------------------------------------------------------------------------|
D|---------------------------------------------------------------------------|
A|-----------3-3-3-3-3-3-----------3-3-3-3-3-3-------------------------------|
E|--0-2-2-2---------------0-2-2-2---------------0-2-2-2----------------------|

Outro:
G|---------------------------------------------------------------------------|
D|---------------------------------------------------------------------------|
A|---------------------------------------------------------------------------|
E|--2-2-2-2--0-2-5-2---------------------------------------------------------|
Suggest correction
Give kudos to tab author, rate the tab!
1 2 3 4 5
comments
print report bad tab
guest
You may want to rate the tab now too:
select rating
Wanna post a correction for this tab? Suggest correction