Oops, an error
Loading. Please wait.

The White Ship bass

112 views 1 this week
no commentswrite comment
1 2 3 4 5
3 more votes to show rating
add to favorites
×
Save as Personal and add changes to this tab that will be seen only by you. Learn more ›
×
You can save this tab as Personal to edit and correct it or add notes. All changes will be seen only by you. Learn more »
launch autoscroll
font size
0
reset
guitar tuner
edit
Autoscroll
slow
fast
+/-
esc
set tempo
stop
Author
Difficulty
Tabbed by: 6METAL6BASSIST6
E-mail: petergriffinav@gmail.com

Tuning: EADG

G|----------------------------------------------------------------|
D|------------------------9-------------------------------9-------|
A|----------------------------------------------------------------|
E|7-----------7---7---------------7-----------7---7---------------|

G|------------------------7-------------------------------7-------|
D|----------------------------------------------------------------|
A|5-----------5---5---------------5-----------5---5---------------|
E|----------------------------------------------------------------|

G|----------------------------------------------------------------|
D|------------------------9-------------------------------9-------|
A|----------------------------------------------------------------|
E|7-----------7---7---------------7-----------7---7---------------|

0:19

G|------------------------7-------------------------------7-------|.
D|----------------------------------------------------------------|.
A|5-----------5---5---------------5-----------5---5---------------|.
E|----------------------------------------------------------------|.
                                                                   . x2
G|----------------------------------------------------------------|.
D|------------------------9-------------------------------9-------|.
A|----------------------------------------------------------------|.
E|7-----------7---7---------------7-----------7---7---------------|.

0:44

G|------------------------9-------------------------------9-----/-|
D|----------------------------------------------------------------|
A|7-----------7---7---------------7-----------7---7---------------|
E|----------------------------------------------------------------|

G|9-----------7---------------7---9-----------7-------------------|
D|----------------9-------9-----------------------9-------7-------|
A|----------------------------------------------------------------|
E|----------------------------------------------------------------|

G|----------------------------------------------------------------|
D|------------------------9-------------------------------9-------|
A|----------------------------------------------------------------|
E|7-----------7---7---------------7-----------7---7---------------|

G|------------------------11------------------------------11------|
D|----------------------------------------------------------------|
A|9-----------9---9---------------9-----------9---9---------------|
E|----------------------------------------------------------------|

1:10

G|------------------------7-------------------------------7-------|.
D|----------------------------------------------------------------|.
A|5-----------5---5---------------5-----------5---5---------------|.
E|----------------------------------------------------------------|.
                                                                   . x2
G|----------------------------------------------------------------|.
D|------------------------9-------------------------------9-------|.
A|----------------------------------------------------------------|.
E|7-----------7---7---------------7-----------7---7---------------|.

1:36

G|------------------------9-------------------------------9-----/-|
D|----------------------------------------------------------------|
A|7-----------7---7---------------7-----------7---7---------------|
E|----------------------------------------------------------------|

G|9-----------7---------------7---9-----------7-------------------|
D|----------------9-------9-----------------------9-------7-------|
A|----------------------------------------------------------------|
E|----------------------------------------------------------------|

G|----------------------------------------------------------------|
D|------------------------9-------------------------------9-------|
A|----------------------------------------------------------------|
E|7-----------7---7---------------7-----------7---7---------------|

G|------------------------11------------------------------11------|
D|----------------------------------------------------------------|
A|9-----------9---9---------------9-----------9---9---------------|
E|----------------------------------------------------------------|

2:03

G|----------------------------------------------------------------|
D|7-----------5---------------5---7-----------7---7-----------7---|
A|----------------7-------7-------------------------------7-------|
E|----------------------------------------------------------------|

G|----------------------------------------------------------------|
D|5-----------4---------------4---5-----------4---5-------6-------|
A|----------------5-------5---------------------------------------|
E|----------------------------------------------------------------|

G|----------------------------------------------------------------|
D|7-----------5---------------5---7-----------5---7-------7---6---|
A|----------------7-------7---------------------------------------|
E|----------------------------------------------------------------|

G|----------------------------------------------------------------|
D|5-----------4---------------4---5-----------4---5-------5-------|
A|----------------5-------5---------------------------------------|
E|----------------------------------------------------------------|

2:29

G|------------------------11------------------------------11------|
D|----------------------------------------------------------------|
A|9-----------9---9---------------9-----------9---9---------------|
E|----------------------------------------------------------------|

G|------------------------7-------------------------------7-------|.
D|----------------------------------------------------------------|.
A|5-----------5---5---------------5-----------5---5---------------|.
E|----------------------------------------------------------------|.
                                                                   . x3
G|----------------------------------------------------------------|.
D|------------------------9-------------------------------9-------|.
A|----------------------------------------------------------------|.
E|7-----------7---7---------------7-----------7---7---------------|.

3:15

G|------------------------9-------------------------------9-----/-|
D|----------------------------------------------------------------|
A|7-----------7---7---------------7-----------7---7---------------|
E|----------------------------------------------------------------|

G|9-----------7---------------7---9-----------9---7---------------|
D|----------------9-------9-------------------------------9-------|
A|----------------------------------------------------------------|
E|----------------------------------------------------------------|

G|----------------------------------------------------------------|
D|------------------------9-------------------------------9-------|
A|----------------------------------------------------------------|
E|7-----------7---7---------------7-----------7---7---------------|

G|------------------------11------------------------------11------|
D|----------------------------------------------------------------|
A|9-----------9---9---------------9-----------9---9---------------|
E|----------------------------------------------------------------|

3:41

G|----------------------------------------------------------------|
D|7-----------5---------------5---7---------------7-------7-------|
A|----------------7-------7-------------------7-------------------|
E|----------------------------------------------------------------|

G|----------------------------------------------------------------|
D|5-----------4---------------4---5-----------4---5-------5---6---|
A|----------------5-------5---------------------------------------|
E|----------------------------------------------------------------|

G|----------------------------------------------------------------|
D|7-----------5---------------5---7-----------5---7-------7---7---|
A|----------------7-------7---------------------------------------|
E|----------------------------------------------------------------|

G|----------------------------------------------------------------|
D|5-----------4---------------4---5-----------4---5-------5-------|
A|----------------5-------5---------------------------------------|
E|----------------------------------------------------------------|

4:08

G|------------------------11------------------------------11------|
D|----------------------------------------------------------------|
A|9-----------9---9---------------9-----------9---9---------------|
E|----------------------------------------------------------------|

G|------------------------7-------------------------------7-------|
D|----------------------------------------------------------------|
A|5-----------5---5---------------5-----------5---5---------------|
E|----------------------------------------------------------------|

G|--------------------------------------------------------|
D|------------------------9-------------------------------|
A|--------------------------------------------------------|
E|7-----------7---7---------------7-----------7---7-------|



4:37

G|------------------------7-------------------------------7-------|
D|----------------------------------------------------------------|
A|5-----------5---5---------------5-----------5---5---------------|
E|----------------------------------------------------------------|

G|------------------------7-------------------------------7-------|.
D|----------------------------------------------------------------|.
A|5-----------5---5---------------5-----------5---5---------------|.
E|----------------------------------------------------------------|.
                                                                   . x2
G|----------------------------------------------------------------|.
D|------------------------9-------------------------------9-------|.
A|----------------------------------------------------------------|.
E|7-----------7---7---------------7-----------7---7---------------|.

5:11

G|------------------------9-------------------------------9-----/-|
D|----------------------------------------------------------------|
A|7-----------7---7---------------7-----------7---7---------------|
E|----------------------------------------------------------------|

G|9-----------7---------------7---9-----------7-------------------|
D|----------------9-------9-----------------------9-------7-------|
A|----------------------------------------------------------------|
E|----------------------------------------------------------------|

G|----------------------------------------------------------------|.
D|------------------------9-------------------------------9-------|.
A|----------------------------------------------------------------|.
E|7-----------7---7---------------7-----------7---7---------------|.
                                                                   . x3
G|------------------------11------------------------------11------|.
D|----------------------------------------------------------------|.
A|9-----------9---9---------------9-----------9---9---------------|.
E|----------------------------------------------------------------|.

G|--------------------------------|
D|--------------------------------|
A|--------------------------------|
E|--7-----------------------------|

            
            
Suggest correction
Creating personal tab
Creating personal tab
You can edit any tab online and save it as your Personal.

You can edit, replace or remove any tab part or add personal notes – all changes will be seen only by you.

Personal tabs can be accessed anytime from any device, even offline.
Learn more »
Give kudos to tab author, rate the tab!
1 2 3 4 5
comments
print report bad tab
guest
You may want to rate the tab now too:
select rating
Wanna post a correction for this tab? Suggest correction