Oops, an error
Loading. Please wait.

Que Hago Con Mis Labios tab

version 1
version 1

Whole song

by Ha*Ash
103 views 1 this week
no commentswrite comment
1 2 3 4 5
3 more votes to show rating
add to favorites
×
Save as Personal and add changes to this tab that will be seen only by you. Learn more ›
×
You can save this tab as Personal to edit and correct it or add notes. All changes will be seen only by you. Learn more »
launch autoscroll
font size
0
reset
how to read this tab
guitar tuner
edit
Autoscroll
slow
fast
+/-
esc
set tempo
stop
saludos.
ahora toca la cancion de este segundo disco de HA-ASH
la escuche y personamente me encanto asi que me puse
sacarla y aki esta...toda la cancion es arpegiada
e incluye varios solos. los cuales incluyo todos,para
las guitarra 1 y 2.
revise mi tablatura varias  estoy exento de errores
pero quedo muy muy bien y los solos se escuchan de peeeeelos ==)
asi  q ahi va:
"consejo: escuchen bien la cancion para usar bien los
tiempos de los arpegios"

intro:
(guitarra 1 = arpegio)

e------0---------0----------0-------0-----------------
B-----3-3-------3-3--------3-3-----3-3----------------
G----0---0-----0---0------0---0---0---0---------------
D---2---------0----------2-------0--------------------
A--3---------2----------3-------2---------------------
E-----------------------------------------------------

intro guitarra 2 (solo q se toca mientras se arpegia)
e--12---10-------------12--10-12---------------
B----12---10-------------12------10------------
G------------11-12------------------12/11------
D-----------------12----------------------12---
A----------------------------------------------
E----------------------------------------------

verso :
  Entraste como un rayo de luz, Como un aire encantador
e-------------------------------------------------------
B-------3---------------3----------------3----------3---
G------0--0------------0---0------------0--0-------0---0
D-----0---------------0----------------0----------0-----
A--3----------------2----------------0------------------
E------------------------------------------------3------

Liberaste con tu hechizo a mi recluso corazón
e------------------------------------------------------
B--------3------------3-------------3----------3-------
G-------0--0---------0---0---------0--0-------0---0----
D------0------------0-------------0----------0---------
A---3-------------2-------------0----------------------
E-------------------------------------------3----------


Tu dulzura corrió por mis venas, Creí en tu intención
e-------------------0----------------------------0------
B-----------3----------------------------3--------------
G----------0--0------------------------0---0------------
D--------0------0--------------------0------0-----------
A---3----------------------------2----------------------
E-------------------------------------------------------

No pensé que fuese un engaño,Ni una mentira tu amor
e------------------0-----------------------0------------
B------------3-----------------------3------------------
G----------0---0-------------------0---0----------------
D--------0-------0---------------0-------0---------------
A---0---------------------------------------------------
E----------------------------3--------------------------


Me dices que te está llamando,Te vas sin un adiós
e-------------------0----------------------------0------
B-----------3----------------------------3--------------
G----------0--0------------------------0---0------------
D--------0------0--------------------0------0-----------
A---3----------------------------2----------------------
E-------------------------------------------------------
Sé muy bien que harás en sus brazos, Dime que hago yo.
e-------------------------0-------------------------0---
B------------------3-------------------------3-------3--
G-----------------0---0---------------------0---0------0
D---------------0-------0-----------------0-------------
A---------0---------------------------------------------
E---------------------------------------3---------------

===========================Coro:========================
 (solo antes del coro)   (guitarra 2)
e---10--10-----------
B-12--12---12-10-12--  (se toca rapido)


Que hago con mis labios si me ruegan tus besos
e---------------------3-----3-------3-----3---
B--------------------3-3-----------3-3--------
G-------------------0--0--0-------2---2--2----
D-----------------0-------------0-------------
A---------------------------------------------
E----------------3-------------2--------------

   Que hago con mis manos si suplican tu regreso

e---10--10-----------
B-12--12---12-10-12--

e------------------------3------3------0------0-
B-----------------------3-3-----------3-3-------
G----------------------0---0--0------0---0--0---
D--------------------2-------------2------------
A-------------------2-------------3-------------
E-----------------------------------------------

Que hago con mis noches que hago con mis días
e---10--10-----------
B-12--12---12-10-12--

e---------------------3-----3-------3-----3---
B--------------------3-3-----------3-3--------
G-------------------0--0--0-------2---2--2----
D-----------------0-------------0-------------
A---------------------------------------------
E----------------3-------------2--------------

Que hago con tu esencia si se aferra a la mía
e---10--10-----------
B-12--12---12-10-12--

e------------------------3------3------0------0-
B-----------------------3-3-----------3-3-------
G----------------------0---0--0------0---0--0---
D--------------------2-------------2------------
A-------------------2-------------3-------------
E-----------------------------------------------

Dime que hago yo.
  e---10--10-----------
  B-12--12---12-10-12--

intro:
(guitarra 1 = arpegio)

e------0---------0----------0-------0----------
B-----3-3-------3-3--------3-3-----3-3---------
G----0---0-----0---0------0---0---0---0--------
D---2---------0----------2-------0-------------
A--3---------2----------3-------2--------------
E----------------------------------------------

intro guitarra 2
e--12---10-------------12--10-12---------------
B----12---10-------------12------10------------
G------------11-12------------------12/11------
D-----------------12----------------------12---
A----------------------------------------------
E----------------------------------------------

verso 2:

Hablamos solo cuando puedes,Te abrazo al esconder
e------------------0---------------------0------
B---------3------------------------3------------
G--------0--0--------------------0---0----------
D------2-------2---------------0------0---------
A--3------------------------2-------------------
E-----------------------------------------------

Que no haría para tenerte a mi lado al amanecer
e------------------0--------------------0-------
B----------3----------------------3-------------
G--------0---0------------------0---0-----------
D------0-------0-------------0-------0----------
A---0-------------------------------------------
E-------------------------3---------------------

Mis amigos dicen que te olvide,Que antes de ti no era igual
e----------0--------0------------------0----------0--------
B-------3----3-----------------------3---3-----------------
G------0------0--------------------0-------0---------------
D-----2-----------0--------------0------------0------------
A----3-------------------------2---------------------------
E----------------------------------------------------------

Antes de ti mi vida no tenia sentido,Antes de ti no sabia amar

e--------------0--------0--------------------0-----------0---
B-----------3----3-------------------------3---3--------3-3--
G---------0-------0-----------------------0-----0------0-----
D-------0------------0------------------0-------------0------
A-----0------------------------------------------------------
E-------------------------------------3----------------------

=======================coro==================================

Que hago con mis labios si me ruegan tus besos
e---10--10-----------
B-12--12---12-10-12--

e---------------------3-----3-------3-----3---
B--------------------3-3-----------3-3--------
G-------------------0--0--0-------2---2--2----
D-----------------0-------------0-------------
A---------------------------------------------
E----------------3-------------2--------------

   Que hago con mis manos si suplican tu regreso

e---10--10-----------
B-12--12---12-10-12--

e------------------------3------3------0------0-
B-----------------------3-3-----------3-3-------
G----------------------0---0--0------0---0--0---
D--------------------2-------------2------------
A-------------------2-------------3-------------
E-----------------------------------------------

Que hago con mis noches que hago con mis días
e---10--10-----------
B-12--12---12-10-12--

e---------------------3-----3-------3-----3---
B--------------------3-3-----------3-3--------
G-------------------0--0--0-------2---2--2----
D-----------------0-------------0-------------
A---------------------------------------------
E----------------3-------------2--------------

Que hago con tu esencia si se aferra a la mía
e---10--10-----------
B-12--12---12-10-12--

e------------------------3------3------0------0-
B-----------------------3-3-----------3-3-------
G----------------------0---0--0------0---0--0---
D--------------------2-------------2------------
A-------------------2-------------3-------------
E-----------------------------------------------

Dime que hago yo.
  e---10--10-----------
  B-12--12---12-10-12--


solo :   guitarra 1
   (esto se toca mientras esta el solo de piano)
e----------0--------------------------0----------
B-------3----3----------------------3---3--------
G------0------0-------------------0-------0------ x 2
D-----2-------------------------0----------------
A----3------------------------2------------------
E------------------------------------------------

(solo de piano)
e-12-15----12--------12------------12-15--15-17-------17
B-------15---------12----12/13-15-------15------13-15---
G--------------14---------------------------------------

================pre coro:===============================

e------0------------0----------0--------0--------
B----3---3--------3---3-------3-3------3-3-------
G---0-----0-----0-------0----0---0----0---0------
D--2----------0-------------2--------0-----------
A-3----------2-------------3--------2------------
E------------------------------------------------
             aiiihaaaaiaa   aiiahaiii uoohuuuooooooo
                                        e--17--15-14----
                                        B------------15-
======================Coro==============================


Que hago con mis labios si me ruegan tus besos
e---10--10-----------
B-12--12---12-10-12--

e---------------------3-----3-------3-----3---
B--------------------3-3-----------3-3--------
G-------------------0--0--0-------2---2--2----
D-----------------0-------------0-------------
A---------------------------------------------
E----------------3-------------2--------------

   Que hago con mis manos si suplican tu regreso

e---10--10-----------
B-12--12---12-10-12--

e------------------------3------3------0------0
B-----------------------3-3-----------3-3------
G----------------------0---0--0------0---0--0--
D--------------------2-------------2-----------
A-------------------2-------------3------------
E----------------------------------------------

Que hago con mis noches que hago con mis días
e---10--10-----------
B-12--12---12-10-12--

e---------------------3-----3-------3-----3---
B--------------------3-3-----------3-3--------
G-------------------0--0--0-------2---2--2----
D-----------------0-------------0-------------
A---------------------------------------------
E----------------3-------------2--------------

Que hago con tu esencia si se aferra a la mía
e---10--10-----------
B-12--12---12-10-12--

e------------------------3------3------0------0
B-----------------------3-3-----------3-3------
G----------------------0---0--0------0---0--0--
D--------------------2-------------2-----------
A-------------------2-------------3------------
E----------------------------------------------

Dime que hago yooooo.  que hago yooooooo uooouu uuoo
e------0---------0-------------------0-----0--------
B-----3-3-------3-3--------3-------3-3-----3--------
G----0---0-----0---0------0-------0--0-----2--------
D---2---------0----------2-------0---2-----0--------
A--3---------2----------3-------2----2---2-2--------
E---------------------------------------------------

y por si prefieren tocar el coro con rasgueos aki pongo los
tonos para el coro (rasgueado se oye de pelos tambien)
CORO:
                  G                         G*
Que hago con mis labios si me ruegan tus besos
                 Em/D                    C9
Que hago con mis manos si suplican tu regreso
                  G                        G*
Que hago con mis noches que hago con mis días
                 Em/D                     C9
Que hago con tu esencia si se aferra a la mía

Dime que hago yo.      (INTRO ETC ETC)

       6 5 4 3 2 1
Em/D | 0 2 2 0 3 3
C9   | 0 3 2 0 3 0
G*   | 2 0 0 2 3 3
G    | 3 2 0 0 3 3


Y asi finaliza espero q sea de su agrado. ==)
esta cancion le gusta mucho ami novia Blanca Edith,y
se la dedico con todo mi corazon."te amo mi BB hermosa"

alguna duda,comentario o sugerencia con mucho gusto los
atendere jo jo ==P ahi esta el correo ya sea por msn o via mail.
     "la musika es  vida.... vivela al maximo"

====================Je & Be============================

            
            
Suggest correction
Creating personal tab
Creating personal tab
You can edit any tab online and save it as your Personal.

You can edit, replace or remove any tab part or add personal notes – all changes will be seen only by you.

Personal tabs can be accessed anytime from any device, even offline.
Learn more »
Give kudos to tab author, rate the tab!
1 2 3 4 5
comments
print report bad tab
guest
Wanna post a correction for this tab? Suggest correction