Oops, an error
Loading. Please wait.

Te Dejo En Libertad tab

by Ha*Ash
687 views 9 this week
no commentswrite comment
1 2 3 4 5
3 more votes to show rating
add to favorites
×
Save as Personal and add changes to this tab that will be seen only by you. Learn more ›
×
You can save this tab as Personal to edit and correct it or add notes. All changes will be seen only by you. Learn more »
launch autoscroll
font size
0
reset
how to read this tab
guitar tuner
edit
Autoscroll
slow
fast
+/-
esc
set tempo
stop
ESTA ES UNA VERSIÓN PARA GUITARRA
¡ESPERO QUE SEA DE SU AGRADO!
¡OJO, CON CAPO EN EL PRIMER TRASTE!

INTRO:
e|-3-2------0-3-2---0-------------5)-|
b|-----3---3------3------------3-----|
g|-----------------------------------|
d|-----------------------------------|
a|-----------------------(0----------|
E|-----------------------------------|

e|---0-2-3-2------0-3-2-------------10)-|
b|-3---------3---3------3--------10-----|
g|----------------------------(7--------|
d|--------------------------------------|
a|-------------------------0------------|
E|--------------------------------------|

ESTROFAS:
 D
Siento que me desconoces
 Bm
Siento que tocarme ahora
        G            A
Te da igual, Te da igual

D
Cada vez hay más temores
Bm
Crece como hiedra
            G
La inseguridad


PRE-ESTRIBILLO:

        A               A7          D
Y me lastima ver que intentas rescatar
           A       Em
Lo que un día en el alma nos unía
        D            A
Ya no está aunque estás
      Em                       A
Es momento de afrontar la realidad

ESTRIBILLO 1:
                          D
Tú me quieres pero yo te amo
                A
Y esa es la verdad
                             D
Tu presencia aquí me está matando
                   F#
De sentirte a la mitad
                  Bm           A
Me cansado de intentar y no lograr
        Em
Que te vuelva a enamorar
        G
Sé que no me quieres lastimar
        A
Pero tengo que soltarte?
         D
Hoy te dejo en libertad

INTERMEDIO:

e|-3-2------0-3-2---0-------------5)-|
b|-----3---3------3------------3-----|
g|-----------------------------------|
d|-----------------------------------|
a|-----------------------(0----------|
E|-----------------------------------|

e|--0-3-2-------0-3-2---0----------0-|
b|-3------3---3-------3------------2-|
g|---------------------------------2-|
d|-----------------------------------|
a|---------------------------0-------|
E|-----------------------------------|

ESTROFAS:
D
No te odio no hay rencores
Bm                              G
Simplemente el corazón ya no está
        A
Tú corazón ya no está

D
Se han perdido los colores
Bm                              G
Ya tus manos no me tratan de buscar


PRE-ESTRIBILLO:

        A               A7          D
Y me lastima ver que intentas rescatar
           A       Em
Lo que un día en el alma nos unía
        D            A
Ya no está aunque estás
      Em                       A
Es momento de afrontar la realidad

ESTRIBILLO 2:
                          D
Tú me quieres pero yo te amo
                A
Y esa es la verdad
                             D
Tu presencia aquí me está matando
                   F#
De sentirte a la mitad
                  Bm           A
Me cansado de intentar y no lograr
        Em
Que te vuelva a enamorar
        G
Sé que no me quieres lastimar
       A
Pero tengo que soltarte?
D                          Bm
Me hace más daño seguir contigo?
          G
Y ver que aún con mi calor
       A
Tú sigas teniendo frío

ESTRIBILLO 1 E INTERMEDIO UNA VEZ MÁS

            
            
Suggest correction
Creating personal tab
Creating personal tab
You can edit any tab online and save it as your Personal.

You can edit, replace or remove any tab part or add personal notes – all changes will be seen only by you.

Personal tabs can be accessed anytime from any device, even offline.
Learn more »
Give kudos to tab author, rate the tab!
1 2 3 4 5
comments
print report bad tab
guest
Wanna post a correction for this tab? Suggest correction