Oops, an error
Loading. Please wait.

What Is Love Tab

version 1
version 1

Intro

Whole song

Interactive

17,719 views 6 this week
2 commentsread comments
1 2 3 4 5
2 more votes to show rating
add to favorites
launch autoscroll
font size
0
reset
how to read this tab
guitar tuner
Autoscroll
slow
fast
+/-
esc
set tempo
stop
Help us to improve Ultimate-Guitar.com Take our survey!
×
Capo
1st fret
Same 4 chords for the whole song

Intro:
e|-------------------------------------------|
B|-------------------------------------------|
G|-------------------------------------------|
D|---------------------0-0-00--0-3-3-3-0-3---|
A|-----------1-1-1--34-----------------------|
E|--3-3-33-1---------------------------------|

Capo 1
F#m A C#m E

No Capo
Gm Bb Dm F
Suggest correction
Give kudos to tab author, rate the tab!
1 2 3 4 5
comments
print report bad tab
2 comments total.
0 reply
Red Gib. player 10 Apr 19, 2008 07:40 PM

ur tab is wrong

---------------
---------------
---------------
------------------------------3-3-3---------
----------1-1-1-1-3-5-5-5-5-5-------5--
-3-3-3-3-1----------

0 reply
EoinTraynor 10 Jul 02, 2008 05:12 PM

well urs isn't much better ^^^^

no it's pretty solid, and in all honesty, this is always going to be played for a laugh, not to showcase your guitar prowess.

guest
You may want to rate the tab now too:
select rating
Wanna post a correction for this tab? Suggest correction