Oops, an error
Loading. Please wait.

What Is Love Tab

version 1
version 1

Whole song

Interactive

32,898 views 18 this week
3 commentsread comments
1 2 3 4 5
x 13
add to favorites
launch autoscroll
font size
0
reset
how to read this tab
guitar tuner
Autoscroll
slow
fast
+/-
esc
set tempo
stop
Help us to improve Ultimate-Guitar.com Take our survey!
×
Created by: DRAHCIR NAYR

I saw this on another tab and flet like smacking the creator over the head for his 
and found out how to play it in under 15 seconds. Oh, and this is my first tab and i may 
more for you guitarists to enjoy. My tabs will always be either 98% or 100% correct
or else i will crawl back into my cave where the weapons of mass destruction are. ENJOY!

e|-------------------------------------------------------------------------|
B|-------------------------------------------------------------------------|
G|-------------------------------------------------------------------------|
D|-----------------0-0-00-1-3-3-3-33---------------------------------------|
A|--------01-1-1-13--------------------------------------------------------|
E|-3-3-33------------------------------------------------------------------|
Suggest correction
comments
print report bad tab
3 comments total.
+1 reply
CiscoKid13 10 Mar 28, 2007 07:56 PM

Better start crawling into your space, because this is wrong. For some reason, nobody has it right. I recently posted the correct version (verified it by putting it on Finale), tab's not up yet, but it will be.

+4 reply
Red Gib. player 10 Apr 19, 2008 07:44 PM

Sorry but by the looks of this, your going to be in your cave the rest of your life. Sorry.

this is it.

------------------------
--------------------------
-----------------------
------------------------------3-3-3------
----------1-1-1-1-3-5-5-5-5-5-------5--
3-3-3-3-1--------------------------

0 reply
gerbetta33 50 Dec 24, 2008 01:52 PM

yeah bro, thats definitely wrong

guest
You may want to rate the tab now too:
select rating
Wanna post a correction for this tab? Suggest correction