Oops, an error
Loading. Please wait.

What Is Love Tab

version 3
version 3

Whole song

Interactive

29,882 views 39 this week
no commentswrite comment
1 2 3 4 5
1 last vote to show rating
add to favorites
launch autoscroll
font size
0
reset
how to read this tab
guitar tuner
Autoscroll
slow
fast
+/-
esc
set tempo
stop
Help us to improve Ultimate-Guitar.com Take our survey!
×
Author
Difficulty
intermediate
Synth
e| -----1-------------------|
B| -3---3-------1-----------|
G| -3---3---2---2-----------|
D| -5-------3---3-----------|
A| ---------5---------------|
E| -------------------------|

   Main Riff
e| ---------------------------------------|
B| ---------------------------------------|
G| ---------------------------------------|
D| -----------------------0-0-0-0-0-0-0-0-|
A| --------1-1-1-1-1-1-1-1----------------|
E| 33333333-------------------------------|

e| ------------------------|
B| ------------------------|
G| ------------------------|
D| 33333333----------------|
A| ------------------------|
E| ------------------------| Repeat

   Supplemental Melody
e| 656-6-5-6-6-5-6-6-5-6-5-3-5-5-3-5--|
B| ---8-----8-----6-----6-----6-----6-|
G| -----------------------------------|
D| -----------------------------------|
A| -----------------------------------|
E| -----------------------------------| Repeat
Suggest correction
Give kudos to tab author, rate the tab!
1 2 3 4 5
comments
print report bad tab
guest
You may want to rate the tab now too:
select rating
Wanna post a correction for this tab? Suggest correction