Oops, an error
Loading. Please wait.

What Is Love Tab

version 5
version 5

Whole song

Interactive

4,821 views 36 this week
no commentswrite comment
1 2 3 4 5
x 4
add to favorites
launch autoscroll
font size
0
reset
how to read this tab
guitar tuner
×
Best way to learn
"What Is Love"
Autoscroll
slow
fast
+/-
esc
set tempo
stop
Author
What is Love- Haddaway
Standard Tuning
My first tab, enjoy. The solo may need to be tweaked to your needs but if you
know the rhythm it sounds fine.

Synth 2x
  2x         2x         4x
E|----------|----------|-------------------------------------|
B|----------|----------|-------------------------------------|
G|3--2--3--0|3--2--3---|---2--0--2---------------------------|
D|----------|---------3|------------3------------------------|
A|----------|----------|-------------------------------------|
E|----------|----------|-------------------------------------|
Chords 2x
E|--3--3--3--3--3--------------------------------------------------|
B|--3--3--3--3--4---3--3--3--3--4---3--3--3--3--4----1--1--1--1--3-|
G|--3--3--3--3--3---3--3--3--3--3---2--2--2--2--2----2--2--2--2--2-|
D|------------------3--3--3--3--3---3--3--3--3--3----3--3--3--3--3-|
A|-----------------------------------------------------------------|
E|-----------------------------------------------------------------|
  2x         2x         4x
E|----------|----------|-------------------------------------|
B|----------|----------|-------------------------------------|
G|3--2--3--0|3--2--3---|---2--0--2---------------------------|
D|----------|---------3|------------3------------------------|
A|----------|----------|-------------------------------------|
E|----------|----------|-------------------------------------|

E|---------------------------------------------------------------|
B|--4--2--4---4--2--4---4--5--4--4--2---4--2--0--0---------------|
G|---------------------------------------------------------------|
D|---------------------------------------------------------------|
A|---------------------------------------------------------------|
E|---------------------------------------------------------------|

E|-----------------------------------------2--4-------------2--------2---------|
B|--4--2--4---4--2--4---4--5--4--4--2---4----------4--4--5-----4--4-----4--4--2|
G|-----------------------------------------------------------------------------|
D|-----------------------------------------------------------------------------|
A|-----------------------------------------------------------------------------|
E|-----------------------------------------------------------------------------|

E|----2--4-------------2--------2---------|
B|-4----------4--4--5-----4--4-----4--4--2|
G|----------------------------------------|
D|----------------------------------------|
A|----------------------------------------|
E|----------------------------------------|
Solo 2x
E|----2--4--7--9--11--9--7--4--9--11--9--7--4--9--7--------------|
B|-4-------------------------------------------------------------|
G|---------------------------------------------------------------|
D|---------------------------------------------------------------|
A|---------------------------------------------------------------|
E|---------------------------------------------------------------|
Chords 2x
E|--3--3--3--3--3--------------------------------------------------|
B|--3--3--3--3--4---3--3--3--3--4---3--3--3--3--4----1--1--1--1--3-|
G|--3--3--3--3--3---3--3--3--3--3---2--2--2--2--2----2--2--2--2--2-|
D|------------------3--3--3--3--3---3--3--3--3--3----3--3--3--3--3-|
A|-----------------------------------------------------------------|
E|-----------------------------------------------------------------|

E|---------------------------------------------------------------|
B|--4--2--4---4--2--4---4--5--4--4--2---4--2--0--0---------------|
G|---------------------------------------------------------------|
D|---------------------------------------------------------------|
A|---------------------------------------------------------------|
E|---------------------------------------------------------------|

E|-----------------------------------------2--4----|
B|--4--2--4---4--2--4---4--5--4--4--2---4----------|
G|-------------------------------------------------|
D|-------------------------------------------------|
A|-------------------------------------------------|
E|-------------------------------------------------|
Synth 3x
  2x         2x         4x
E|----------|----------|-------------------------------------|
B|----------|----------|-------------------------------------|
G|3--2--3--0|3--2--3---|---2--0--2---------------------------|
D|----------|---------3|------------3------------------------|
A|----------|----------|-------------------------------------|
E|----------|----------|-------------------------------------|

E|----2--4--7--9--11--9--7--4--9--11--9--7--4--9--7--------------|
B|-4-------------------------------------------------------------|
G|---------------------------------------------------------------|
D|---------------------------------------------------------------|
A|---------------------------------------------------------------|
E|---------------------------------------------------------------|
Chords 2x
E|--3--3--3--3--3--------------------------------------------------|
B|--3--3--3--3--4---3--3--3--3--4---3--3--3--3--4----1--1--1--1--3-|
G|--3--3--3--3--3---3--3--3--3--3---2--2--2--2--2----2--2--2--2--2-|
D|------------------3--3--3--3--3---3--3--3--3--3----3--3--3--3--3-|
A|-----------------------------------------------------------------|
E|-----------------------------------------------------------------|
Suggest correction
comments
print report bad tab
guest
You may want to rate the tab now too:
select rating
Wanna post a correction for this tab? Suggest correction