Oops, an error
Loading. Please wait.

Bombshock Tab

1,620 views 1 this week
no commentswrite comment
1 2 3 4 5
2 more votes to show rating
add to favorites
launch autoscroll
font size
0
reset
how to read this tab
guitar tuner
Autoscroll
slow
fast
+/-
esc
set tempo
stop
Help us to improve Ultimate-Guitar.com Take our survey!
×
Author
Live version (Rock for people 2009)

standart tuning

INTRO
bass
----------------------|
----------------------| x2
-8-8--8-8--8-8--6-6-6-|
----------------------|

guitar
---------------------------------------------------------|
---------------------------------------------------------|
---------------------------------------------------------|
-6-6-6-----8-8-8--------------6-6-6-----8-8-8------9-8-6-|  x2
------8-8-8-----8-8-8-6-6-6-8------8-8-8-----8-8-8-------|
---------------------------------------------------------|

VERSE
guitarist doesn't play, but you can play this
------------------------------------------|
------------------------------------------|
13/10-----------------13/10---------------|
x-/x------------------x-/x----------------|
11/8--3-3-3-3--3-3----11/8--3-4-4-4--4-3--|
------1-1-1-1--1-1----------1-2-2-2--2-1--|
      p.m.........          p.m.........

CHORUS
----------------------------------------------------|
----------------------------------------------------|
------------------------------------------------10~-|
10-10-10-10-10-10-10-10-9-9-9-9-9-9-9-9-3-3-3-3-----| x2
10-10-10-10-10-10-10-10-9-9-9-9-9-9-9-9-3-3-3-3-----|
8--8--8--8--8--8--8--8--7-7-7-7-7-7-7-7-1-1-1-1-----|

POSTCHORUS
keyboard part
--------------------------------------|
--------------------------------------|
--------------------------------------|
-1/3-4/3----1/3-4/3--1/3-4/3-6-4-3-1--| x2
--------------------------------------|
1--------1-1--------1-----------------|

smash it with your guitar (the same but +1 octave)
-------------------------------------------------|
-------------------------------------------------|
-8/10-11/10----8/10-11/10--8/10-11/10-13-11-10-8-|
-------------------------------------------------| x2
8-----------8-8-----------8----------------------|
-------------------------------------------------|

BRIDGE
clean part
-------------------------------------------------------------|
-------------------------------------------------------------|
---1-------1-------0-------0-----0-3-0-0-0-3-0-0---1------1--|
-3---3-3-3---3-3-2---2-2-2---2-2-----------------3------3----| x2
-------------------------------------------------------------|
1-1-1-1-1-1-1-1-1-1-1-1-1-1-1-1-1-1-1-1-1-1-1-1-1-1----1-1---|

That's it
Suggest correction
Give kudos to tab author, rate the tab!
1 2 3 4 5
comments
print report bad tab
guest
You may want to rate the tab now too:
select rating
Wanna post a correction for this tab? Suggest correction