Oops, an error
Loading. Please wait.

All You Need Is Love chords

289 views 1 this week
no commentswrite comment
1 2 3 4 5
2 more votes to show rating
add to favorites
×
Save as Personal and add changes to this tab that will be seen only by you. Learn more ›
×
You can save this tab as Personal to edit and correct it or add notes. All changes will be seen only by you. Learn more »
launch autoscroll
font size
0
reset
transpose
0
reset
simplify chords
display chords
guitar tuner
edit
Autoscroll
slow
fast
+/-
esc
set tempo
stop
Strumming
There is no strumming pattern for this song yet. and get +5 IQ
[Intro]

D|------------------|------------------|------------------|------------------|
A|------------------|---------------11-|------------------|---------------11-|
F|-7-7p8-5-7-7h8p10-|---7h8-5---7h8----|-7-7p8-5-7-7h8p10-|---7h8-5---7h8----|
C|------------------|------------------|------------------|------------------|
G|------------------|------------------|------------------|------------------|
C|------------------|------------------|------------------|------------------| 


[Verse 1]

Lass uns nie wieder träumen, mit offenen Augen.
Die Liebe braucht Platz, um sich zu entfalten.
Ich streich dir durchs Haar, entrolle die Pläne.
Schließ mein Visier und drück die Sirene.


[Verse 2]

      D#         D#          D       B   F        D#         D#          D      F        G#
D|----------|----------|----------|----------|----------|----------|----------|----------------|
A|----------|----------|----------|----------|----------|----------|----------|-----13-13-13-13|
F|--10--10--|--10--10--|---9---9--|--6---12--|--10--10--|--10--10--|---9---9--|-12--15-15-15-15|
C|----------|----------|----------|----------|----------|----------|----------|----------------|
G|----------|----------|----------|----------|----------|----------|----------|----------------|
G|----------|----------|----------|----------|----------|----------|----------|----------------|

D#                              D#
Die Startrampe gibt Start und beginne zu laufen
D                      B               F
Ich mach alles platt - mit Abrissbirne und Raupen
D#                           D#
Und vernichte jede Schäden - auf diesen Planeten
D                    F          G#    
Mit Walzen, Kanonen, Dynamit und Raketen!


[Interlude]

D|------------------|------------------|------------------|------------------|
A|------------------|---------------11-|------------------|---------------11-|
F|-7-7p8-5-7-7h8p10-|---7h8-5---7h8----|-7-7p8-5-7-7h8p10-|---7h8-5---7h8----|
C|------------------|------------------|------------------|------------------|
G|------------------|------------------|------------------|------------------|
C|------------------|------------------|------------------|------------------|  


[Verse 3]

Die dreht nur noch für ihre Runden
Ein Tag hat genau 66 Stunden
Selbst die Götter da oben müssen jetzt ziehen
Und die engstirnigen Schafe schnauben und entfliehen


[Bridge]

G#      A#                 C
     All you need is love. All you need is love
G#      A#                       G   G                  
     Und ein bisschen Sprengstoff


[Refrain]

D#               A#           G                  G 
Ich baue dir ein Königreich, mit einem eigenen Kontinent
C            A#            F          G 
Die Welt wird eine Scheibe, auf neuem Fundament
G#               A#          G            C
Ich baue dir ein Königreich, dein eigenes Paradies
G#                   A#
Mit ´nem Palast der durch die Wolken schießt
G 
Und einem Meer das durch dein Zimmer fließt!
G
All you need is love!


[Interlude]

D|------------------|------------------|------------------|------------------|
A|------------------|---------------11-|------------------|---------------11-|
F|-7-7p8-5-7-7h8p10-|---7h8-5---7h8----|-7-7p8-5-7-7h8p10-|---7h8-5---7h8----|
C|------------------|------------------|------------------|------------------|
G|------------------|------------------|------------------|------------------|
C|------------------|------------------|------------------|------------------| 


[Verse 4]

Vergiss doch Fantasia, deine Welt wird viel schöner!
Ich stell die 7 Wunder - in dein Früstückszimmer!
In deinem Vorgarten blüht jetzt ein eigener Vulkan
Aus seiner Lava forme ich dir neues Porzellan


[Verse 5]

      D#         D#          D       B   F        D#         D#          D      F        G#
D|----------|----------|----------|----------|----------|----------|----------|----------------|
A|----------|----------|----------|----------|----------|----------|----------|-----13-13-13-13|
F|--10--10--|--10--10--|---9---9--|--6---12--|--10--10--|--10--10--|---9---9--|-12--15-15-15-15|
C|----------|----------|----------|----------|----------|----------|----------|----------------|
G|----------|----------|----------|----------|----------|----------|----------|----------------|
G|----------|----------|----------|----------|----------|----------|----------|----------------|

D#                            D#
Loch Ness wird zum Golfplatz, der Mond zur Oase
D                     B             F 
Aus dem Elfenbeinturm entsteht eine Vase
D#                      D#
Ich köpfe die Berge und planiere die Gipfel
D                                 F              G#
Du kriegst einen Blick vom Balkon bis Unendlich - ja Richtig!


[Bridge]

G#      A#                 C
     All you need is love. All you need is love
G#      A#                       G   G                  
     Und ein bisschen Sprengstoff


[Refrain]

D#               A#           G                  G 
Ich baue dir ein Königreich, mit einem eigenen Kontinent
C            A#            F          G2 
Die Welt wird eine Scheibe, auf neuem Fundament
G#               A#          G            C
Ich baue dir ein Königreich, dein eigenes Paradies
G#                   A#
Mit ´nem Palast der durch die Wolken schießt
G 
Und einem Meer das durch dein Zimmer fließt!
G
All you need is love!


[Interlude]
 
C     F# F D# C
    Der Wahnsinn regiert!
C     F# F D# C
    Der Wahnsinn regiert!
C     F# F D# C
    Der Wahnsinn regiert!
C     F#
    Der Wahnsinn regiert!

C                     F# F D# C
Leidenschaft wütet - Der Wahnsinn regiert!
C                     F# F D# C
Größenwahn siegt - Der Wahnsinn regiert!
C                     F# F D# C
Bestell schon dein Tod - Der Wahnsinn regiert!
C                     F# F D# C
Die Liebe diktiert - Der Wahnsinn regiert!


[Interlude]

D|------------------|------------------|------------------|------------------|
A|------------------|---------------11-|------------------|---------------11-|
F|-7-7p8-5-7-7h8p10-|---7h8-5---7h8----|-7-7p8-5-7-7h8p10-|---7h8-5---7h8----|
C|------------------|------------------|------------------|------------------|
G|------------------|------------------|------------------|------------------|
C|------------------|------------------|------------------|------------------| 


[Refrain]

D#               A#           G                  G 
Ich baue dir ein Königreich, mit einem eigenen Kontinent
C            A#            F          G2 
Die Welt wird eine Scheibe, auf neuem Fundament
G#               A#          G            C
Ich baue dir ein Königreich, dein eigenes Paradies
G#                   A#
Mit ´nem Palast der durch die Wolken schießt
G 
Und einem Meer das durch dein Zimmer fließt!
G
All you need is love!


[Ending]

D|------------------|------------------|------------------|------------------|
A|------------------|---------------11-|------------------|---------------11-|
F|-7-7p8-5-7-7h8p10-|---7h8-5---7h8----|-7-7p8-5-7-7h8p10-|---7h8-5---7h8----|
C|------------------|------------------|------------------|------------------|
G|------------------|------------------|------------------|------------------|
C|------------------|------------------|------------------|------------------|

***********************************
| p   Pull-off
| h   Hammer-on
***********************************

            
            
Suggest correction
Creating personal tab
Creating personal tab
You can edit any tab online and save it as your Personal.

You can edit, replace or remove any tab part or add personal notes – all changes will be seen only by you.

Personal tabs can be accessed anytime from any device, even offline.
Learn more »
Give kudos to tab author, rate the tab!
1 2 3 4 5
comments
print report bad tab
guest
You may want to rate the tab now too:
select rating
Wanna post a correction for this tab? Suggest correction