Oops, an error
Loading. Please wait.

Another Face Bass Tab

127 views 1 this week
no commentswrite comment
1 2 3 4 5
please rate
add to favorites
launch autoscroll
font size
0
reset
guitar tuner
Autoscroll
slow
fast
+/-
esc
set tempo
stop
Help us to improve Ultimate-Guitar.com Take our survey!
×
Author
Difficulty
(0:15)
G|--------------------------------|--------------------------------|
D|--------------------------------|--------------------------------|
A|5-5---5-5-5---5-----------------|5-5---5-5-5---5-----------------|
E|----------------6-6---6-5-5---5-|----------------6-6---6-5-5---5-|

(0:43)
G|--------------------------------|--------------------------------|
D|--------------------------------|--------------------------------|
A|--------------------------------|--------------------------------|
E|6-6---6-6-6---6-6-6---6-6-6---6-|8-8---8-8-8---8-8-8---8-5-5---5-|

G|--------------------------------|--------------------------------|
D|--------------------------------|--------------------------------|
A|--------------------------------|--------------------------------|
E|6-6---6-6-6---6-6-6---6-6-6---6-|8~----------9~------------------|

(0:57)
G|--------------------------------|--------------------------------|
D|----3---5---7---5---3-----------|5-5---5-5-5---5-----------------|
A|5-----------------------5---3---|----------------3-3---3-3-3---4-|
E|--------------------------------|--------------------------------|

(1:11)
G|--------------------------------|----------6---6-----------------|
D|--8---8---8---8---10--10--10--10|--12--12----------12--12--10--10|
A|--------------------------------|--------8---8-------------------|
E|6---6---6---6---8---8---8---8---|10--10----------10--10--8---8---|

G|--------------------------------|
D|--------------------------------|
A|--------------------------------|
E|6~----------8~------------------|

(1:23) - Same as (0:15)

(1:36) - Same as (0:43)

(1:50) - Same as (0:57)

(2:19) 
G|--------------------------------|--------------------------------|
D|--------------------------------|--------------------------------|
A|5~------------------------------|5~------------------------------|
E|--------------6~------8~--------|--------------6~-------8~-------|

(2:26)
G|--7---7---7---7---7---7---7---7-|--------------------------------|
D|--------------------------------|--8---8---8---8---10--10--10--10|
A|5---5---5---5---5---5---5---5---|--------------------------------|
E|--------------------------------|6---6---6---6---8---8---8---8---|

(3:08) - Same as (2:19)
Suggest correction
Give kudos to tab author, rate the tab!
1 2 3 4 5
comments
print report bad tab
guest
You may want to rate the tab now too:
select rating
Wanna post a correction for this tab? Suggest correction