Oops, an error
Loading. Please wait.

Feeling Is Wrong Bass Tab

65 views 1 this week
no commentswrite comment
1 2 3 4 5
please rate
add to favorites
launch autoscroll
font size
0
reset
guitar tuner
Autoscroll
slow
fast
+/-
esc
set tempo
stop
Help us to improve Ultimate-Guitar.com Take our survey!
×
Contributor
Difficulty
emerica10570 1,584
intermediate
(0:00)
G|----7-----7---------7-----------|----7-----7---------7-----------|
D|--9-----9---------9-------------|--9-----9---------9-------------|
A|7-----7---------7-----10--10--8-|7-----7---------7-----10--10--8-|
E|--------------------------------|--------------------------------|

(0:32)
G|--------------------------------|
D|--------------------------------|
A|--------------------------------|
E|8-8-8-8-8-8-8-8/1010101010101010|

(0:37)
G|--------9---9\\\--------7---7\\\|--------------------------------|
D|--------------------------------|--------------------------------|
A|7-7---7---------7-7---7---------|--------------------------------|
E|--------------------------------|8-8-8-8-8-8-8-8/1010101010101010|

(0:46)
G|----7-----7---7-----7-----7---7-|--------------------------------|
D|--9-----9---------9-----9-------|--9-10--9-10--10--9-12--9-12--9-|
A|7-----7-----7---7-----7-----7---|--------------------------------|
E|--------------------------------|8-----8-----8---10----10----10--|

(1:04)
G|--------------------------------||--------------------------------|
D|----7--------5---2--2--2----0---||--------------------------------|
A|--------------------------2---2-||--------------------------------|
E|5-55-5--3-33---3----------------||5-5-5-5-5-5-5-5/1010101010101010|

(1:22) - Same as (0:00)

(1:44) - Same as (0:32)

(1:49) - Same as (0:37)

(1:57) - Same as (0:46)

(2:15) - Same as (1:04)

(2:38)
G|99----99--------77----55--------||--------------------------------|
D|--------------------------------||--------------------------------|
A|--7-----7---------5-----3-3-3-5-||--------------------------------|
E|--------------------------------||5-5-5-5-5-5-5-5/1010101010101010|

(3:14) - Same as (0:46)
comments
We did not receive enough feedback on this tab! Please rate:
print report bad tab
1 2 3 4 5
I want to post or [tab]
guest
You may want to rate the tab now too:
select rating
Please do not post tabs as comments. Select "correction" instead!