Oops, an error
Loading. Please wait.

Hands Are Tied Tab

168 views 1 this week
no commentswrite comment
1 2 3 4 5
2 more votes to show rating
add to favorites
launch autoscroll
font size
0
reset
how to read this tab
guitar tuner
Autoscroll
slow
fast
+/-
esc
set tempo
stop
Help us to improve Ultimate-Guitar.com Take our survey!
×
Author
Difficulty
Intro
(0:04)

Guitar 1
E|----------------|----------------|
B|----------------|----------------|
G|----------------|----------------|
D|--4-4---4-4-5-4-|--9-9-----5---7-|
A|----------------|----------------|
E|22-2-2-2-2-2-2-2|77-7-7-733-355-5|

Verse
(0:40)

Guitar 1
E|----------------|----------------|
B|----------------|----------------|
G|----------------|----------------|
D|--9-9-----7---5-|--4-4---4-4-5-4-|
A|----------------|----------------|
E|77-7-7-755-533-3|22-2-2-2-2-2-2-2|

Guitar 2
    Bm      A   G    F#m
E|----------------|----------------|
B|--77--77--55--33|--22--22--22--22|
G|--77--77--66--44|--22--22--22--22|
D|--99--99--77--55|--44--44--44--44|
A|----------------|----------------|
E|----------------|----------------|

Chorus
(0:53)

Guitar 1
E|------5-------5-|------5-------5-|
B|-575-5-5-575-5-5|-575-5-5-575-5-5|
G|7---7---7---7---|7---7---7---7---|
D|----------------|----------------|
A|----------------|----------------|
E|----------------|----------------|

Guitar 2
  G                F#m     A     
E|3333333333333333|2222222255555555|
B|3333333333333333|2222222255555555|
G|4444444444444444|2222222266666666|
D|5555555555555555|4444444477777777|
A|5555555555555555|4444444477777777|
E|3333333333333333|2222222255555555|

(1:13)

Guitar 2
  Bm      A   G    F#m     A
E|777-----55--33--|2222222255555555|
B|777-----55--33--|2222222255555555|
G|777-----66--44--|2222222266666666|
D|999-----77--55--|4444444477777777|
A|999-----77--55--|4444444477777777|
E|777-----55--33--|2222222255555555|

Back To Verse (1:20)

Back To Chorus (1:46)

Break
(2:00)
  Bm
E|7~--------------|----------------|
B|7~--------------|----------------|
G|7~---------7---7|---7---7---7----|
D|9~-----------9--|-9---9---9---9--|
A|9~------------9-|--9---9---9---9-|
E|7~--------------|----------------|

E|----------------|----------------|
B|----------------|----------------|
G|7~--------------|----------------|
D|----------9-9-7-|-7~-------7-7-9-|
A|----------9-9-7-|-7~-------7-7-9-|
E|----------------|----------------|

(2:14)
E|----------------|----------------|
B|----------------|----------------|
G|--11--11--11--11|--11--11--11--11|<--Elevens
D|9---------------|----------------|
A|9-99--99--99--99|--99--99--99--99|
E|----------------|----------------|

(2:40)
E|----------------|----------------|
B|----------------|----------------|
G|4444121244441212|----1212----1212|
D|4444121244441212|2222121222221212|
A|2222101022221010|2222101022221010|<--Tens and Twelves
E|----------------|0000----5555----|

(3:08)
E|-x-x-x-xxx-x-x-x|-x-x-x-xxx-x-x\\|
B|-x-x-x-xxx-x-x-x|-x-x-x-xxx-x-x\\|
G|7x7x7x-xxx-x-x-x|7x7x7x-xxx-x-x\\|
D|-x-x-x9xxx7x7x9x|-x-x-x9xxx7x7x\\|<--Tremolo Strumming
A|5x5x5x-xxx-x-x-x|5x5x5x-xxx-x-x\\|
E|-x-x-x7xxx5x5x7x|-x-x-x7xxx5x5x\\|

E|-x-x-x-x-x-x----|-x-x-x-------xxx|
B|-x-x-x-x-x-x----|-x-x-x-------xxx|
G|7x7x7x7x7x7x7999|7x7x7x777----xxx|
D|-x-x-x-x-x-x----|-x-x-x---9977xxx|<--Tremolo Strumming
A|5x5x5x5x5x5x5777|5x5x5x555----xxx|
E|-x-x-x-x-x-x----|-x-x-x---7755xxx|
Suggest correction
Give kudos to tab author, rate the tab!
1 2 3 4 5
comments
print report bad tab
guest
You may want to rate the tab now too:
select rating
Wanna post a correction for this tab? Suggest correction