Oops, an error
Loading. Please wait.

Repetition Tab

135 views 3 this week
no commentswrite comment
1 2 3 4 5
excellent!
x 1
add to favorites
launch autoscroll
font size
0
reset
how to read this tab
guitar tuner
Tab Pro tools
  • play this tab
  • loop segment
  • change instrument
  • show fretboard
  • metronome
Autoscroll
slow
fast
+/-
esc
set tempo
stop
Contributor
Difficulty
intermediate
(0:09)
E|--------------------------------|--------------------------------|
B|5~------------5~----------------|5~------------5~----------------|
G|5~------------6~----------------|5~------------4~----------------|
D|7~------------7~----------------|7~------------5~----------------|
A|7~------------7~----------------|7~------------7~----------------|
E|--------------------------------|--------------------------------|

(0:25)
E|--------------------------------|--------------------------------|
B|--------5-----------------------|--------5-----------------------|
G|----5-----5---6-----6-----6-----|----5-----5---4-----4-----4-----|
D|--7---7-----7---7-----7-----7---|--7---7-----7---5-----5-----5---|
A|7-----------------7-----7-----7-|7-----------------7-----7-----7-|
E|--------------------------------|--------------------------------|

(1:13)
E|--------------------------------|--------------------------------|
B|--------------------------------|--------------------------------|
G|--------------------------------|--------------------------------|
D|--2---2---2---2---2---2---2---2-|5~------7~------9~----10--9-5-5-|
A|3---3---3---3---3---3---3---3---|--------------------------------|
E|--------------------------------|3~------5~------7~----8~--7-3-3-|

E|--------------------------------|
B|--------------------------------|
G|--------------------------------|
D|7-7~----------5~----------------|
A|--------------------------------|
E|5-5~----------3~----------------|

(1:25)
E|--------------------------------|--------------------------------|
B|--------------------------------|--------------------------------|
G|------55------55------55------55|--44----------------------------|
D|--77------77------77------77----|------55------55--77------55--77|
A|--------------------------------|----------77----------77--------|
E|--------------------------------|--------------------------------|

(1:41) - Same as (1:13)\
                        \
(1:53) - Same as (0:09)  \
                          \
(2:09) - Same as (0:25)    \
                            \It's Repetition (get it?)
(2:41) - Same as (1:13)     /
                           /
(2:53) - Same as (1:25)   /
                         /
(3:25) - Same as (1:13) /

(3:37)
E|--------------------------------|--------------------------------|
B|--------------------------------|--------------------------------|
G|--------5-------5---9p7---5-4-5-|5-4-0-4-------------------------|
D|----5h7-----5h7---7-------------|--------2-----0-2-5-2---1-------|
A|5h7-----------------------------|--------------------------------|
E|--------------------------------|--------------------------------|

E|12--------------------12--------|--------------------------------|
B|--12--------------12------121212|12\\1010--10--10--10//1212121212|
G|------12------12----------121212|12\\1010--10--10--10//1212121212|
D|----------12--------------------|--------------------------------|
A|--------------------------------|--------------------------------|
E|--------------------------------|--------------------------------|

E|--------12----8-------12\\10\\8-|8p7-------7-------7-------------|
B|10--1010--1010----1010----------|----8-------8-------8-----------|
G|--------------------------------|------9-------9-------9-9---8---|
D|--------------------------------|--------------------------------|
A|--------------------------------|--------------------------------|
E|--------------------------------|--------------------------------|

E|--------------------------------|--------------------------------|
B|--------------------------------|--------------------------------|
G|--9-----9---------7-----7-------|--5-----5---------4-----4-------|
D|7---7-7---------5-----5---------|3-----3---------2-----2---------|
A|--------------------------------|--------------------------------|
E|--------------------------------|--------------------------------|

(4:09) - Same as (3:37)
comments
We did not receive enough feedback on this tab! Please rate:
print report bad tab
1 2 3 4 5
I want to post or [tab]
guest
You may want to rate the tab now too:
select rating
Please do not post tabs as comments. Select "correction" instead!