Oops, an error
Loading. Please wait.

Burn Nice And Slow tab

version 1
version 1

Whole song

1,273 views 15 this week
no commentswrite comment
1 2 3 4 5
x 5
add to favorites
×
Save as Personal and add changes to this tab that will be seen only by you. Learn more ›
×
You can save this tab as Personal to edit and correct it or add notes. All changes will be seen only by you. Learn more »
launch autoscroll
font size
0
reset
how to read this tab
guitar tuner
edit
Autoscroll
slow
fast
+/-
esc
set tempo
stop
Author
Difficulty
Tabbed by: Joshua Garcia (joshuag523@aol.com)

Tabs for the song: Burn Nice and Slow (The Formative Years) by Hail The Sun
Please rate and let me know if you have any corrections. Thank you.


Tuning: Standard (E A D G B E)


[Intro]
Guitar 1/2:
E||-----------|
B||-----------|
G||-----------|
D||-----------|
A||-----------|
E||--7-7-7-7--|


E||----------------------|----------------------|----------------------|
B||----------------------|----------------------|----------------------|
G||----------9~--9~------|----------9~--9~------|----------9~--9~------|
D||----------9~--9~---6--|----------9~--9~---6--|----------9~--9~---6--|
A||-------------------x--|-------------------x--|-------------------x--|
E||--9---9------------5--|--9---9------------5--|--9---9------------5--|


E||-----------------------------------|
B||-----------------------------------|
G||-----------------------------------|
D||-----------------------------------|
A||-----------------------------------|
E||--2-0-2-4-2-0-2-0-4-7-4-0-7-8-8-8--|


E||----------------------|----------------------|----------------------|
B||----------------------|----------------------|----------------------|
G||----------9~--9~------|----------9~--9~------|----------9~--9~------|
D||----------9~--9~---6--|----------9~--9~---6--|----------9~--9~---6--|
A||-------------------x--|-------------------x--|-------------------x--|
E||--9---9------------5--|--9---9------------5--|--9---9------------5--|


Guitar 1:
E||-----------------------------------|
B||-----------------------------------|
G||-----------------------------------|
D||-----------------------------------|
A||-----------------------------------|
E||--2-0-2-------2-0-4-------7-8-8-8--|


Guitar 2:
E||-----------------------------------|
B||-----------------------------------|
G||-----------------------------------|
D||-----------------------------------|
A||-----------------------------------|
E||--2-0-2-4-2-0-2-0-4-7-4-0-7-8-8-8--|


E||--------------|
B||--------------|
G||--4-2---------|
D||-------4/6\4--|
A||--------------|
E||--------------|



[Verse]
Guitar 1/2:
E||-----------------------------------|-----------------------------------|
B||-----------------------------------|-----------------------------------|
G||-----------------------------------|-----------------------------------|
D||--------6-6-6-------6-6-6-----6-6--|--------2-2-2-------2-2-2-----4-4--|
A||-----------------------------------|-----------------------------------|
E||--5-5-5-------5-5-5-------5-5------|--2-2-2-------2-2-2-------4-4------|


E||-----------------------------------|-------------------|
B||-----------------------------------|-------------------|
G||-----------------------------------|-------------------|
D||--------6-6-6-------6-6-6-----6-6--|--------2-2-2------|
A||-----------------------------------|-------------------|
E||--5-5-5-------5-5-5-------5-5------|--2-2-2-------2-2--|


Guitar 1:
E||--------------|
B||--------------|
G||--8-6---------|
D||-------7/9\7--|
A||--------------|
E||--------------|


Guitar 2:
E||--------------|
B||--------------|
G||--4-2---------|
D||-------4/6\4--|
A||--------------|
E||--------------|


Guitar 1:
E||-----------------------------------|-----------------------------------|
B||-----------------------------------|-----------------------------------|
G||--------6-6-6-------6-6-6-----6-6--|--------4-4-4-------4-4-4-----6-6--|
D||-----------------------------------|-----------------------------------|
A||--7-7-7-------7-7-7-------7-7------|--4-4-4-------4-4-4-------6-6------|
E||-----------------------------------|-----------------------------------|


E||-----------------------------------|
B||-----------------------------------|
G||--------6-6-6-------6-6-6-----6-6--|
D||-----------------------------------|
A||--7-7-7-------7-7-7-------7-7------|
E||-----------------------------------|


Guitar 2:
E||-----------------------------------|-----------------------------------|
B||-----------------------------------|-----------------------------------|
G||-----------------------------------|-----------------------------------|
D||--------6-6-6-------6-6-6-----6-6--|--------2-2-2-------2-2-2-----4-4--|
A||-----------------------------------|-----------------------------------|
E||--5-5-5-------5-5-5-------5-5------|--2-2-2-------2-2-2-------4-4------|


E||-----------------------------------|
B||-----------------------------------|
G||-----------------------------------|
D||--------6-6-6-------6-6-6-----6-6--|
A||-----------------------------------|
E||--5-5-5-------5-5-5-------5-5------|



[Chorus]
Guitar 1:
E||----------------------|-------------------------------|
B||----------------------|-------------------------------|
G||--4~------6~------6~--|--4~------6~------9--------8~--|
D||--x-------x-------x---|--x-------x-------x--------x---|
A||--4~------6~------7~--|--4~------7~------11-------9~--|
E||----------------------|-------------------------------|


E||----------------------|----------------------|
B||----------------------|----------------------|
G||--4~------6~------6~--|--4~------6~------4~--|
D||--x-------x-------x---|--x-------x-------x---|
A||--4~------6~------7~--|--4~------6~------4~--|
E||----------------------|----------------------|


Guitar 2:
E||----------------------|------------------------------|
B||----------------------|------------------------------|
G||----------------------|------------------------------|
D||--2~------4~------6~--|--2~------6~------9-------7~--|
A||--x-------x-------x---|--x-------x-------x-------x---|
E||--2~------4~------5~--|--2~------5~------9-------7~--|


E||----------------------|----------------------|
B||----------------------|----------------------|
G||----------------------|----------------------|
D||--2~------4~------6~--|--2~------4~------2~--|
A||--x-------x-------x---|--x-------x-------x---|
E||--2~------4~------5~--|--2~------4~------2~--|



[Interlude]
Guitar 1:
E||------------------------------------|--------------------------|
B||--2~--------5~--------2~--------5~--|--2~--------5~--------2~--|
G||--2~--------8~--------2~--------5~--|--2~--------8~--------2~--|
D||--4~--------6~--------4~--------7~--|--4~--------6~--------4~--|
A||------------------------------------|--------------------------|
E||------------------------------------|--------------------------|


E||----------------------------------|
B||--------1~-------1~-------1~------|
G||------4------4~-------4--------4--|
D||----2-------------------2---------|
A||--3-------------------------------|
E||----------------------------------|


Guitar 2:
E||---------------------------11~\-7~--9--|---------------------------7~-------7~--|
B||--------9~-----------------------------|--------9~---------------------10~------|
G||----9-------9~--------9----------------|----9-------9~--------9-----------------|
D||------7------------11---11-------------|------7------------10---10--------------|
A||--9------------------------------------|--9-------------------------------------|
E||---------------------------------------|----------------------------------------|


E||---------------------------11~\-7~--9--|----------------|
B||--9-----9~-----------------------------|--------9~------|
G||------------9~--------9----------------|----9-------9~--|
D||------7------------11---11-------------|------7---------|
A||----9----------------------------------|--9-------------|
E||---------------------------------------|----------------|


E||-----------7~-------7~-------7~-------7--|
B||-----10--------10~------10-------10~-----|
G||---------------------------9-------------|
D||--10----10-------------------------------|
A||-----------------------------------------|
E||-----------------------------------------|



Guitar 1:
E||------------------------------|--------------------------|
B||--------2~------------5~------|--------2~------------1~--|
G||------4-------------8-----8~--|------4-------------4-----|
D||----2-------------6-----------|----2-------------2-------|
A||--4-------------7-------------|--4-------------3---------|
E||------------------------------|--------------------------|


E||------------------------------|------------|
B||--------2~------------5~------|--------2~--|
G||------4-------------8-----8~--|------4-----|
D||----2-------------6-----------|----2-------|
A||--4-------------7-------------|--4---------|
E||------------------------------|------------|


E||-------------------------------------------------------------------|
B||--------1~------1~------1~------1~------1~------1~------1~------1--|
G||------4-----4~------4-------4~------4-------4~------4-------4~-----|
D||----2-----------------2---------------2---------------2------------|
A||--3----------------------------------------------------------------|
E||-------------------------------------------------------------------|


Guitar 2:
E||---------------------------11~\-7~--9--|----------------------------7~-------7--|
B||--9-----9~-----------------------------|--------9~------------10--------10~-----|
G||------------9~--------9----------------|----9-------9~--------------------------|
D||------7------------11---11-------------|------7------------10----10-------------|
A||----9----------------------------------|--9-------------------------------------|
E||---------------------------------------|----------------------------------------|


E||------------------------9-11~\-7~--9--|----------------|
B||--9-----9~----------------------------|--------9~------|
G||------------9~--------9---------------|----9-------9~--|
D||------7------------11-----------------|------7---------|
A||----9---------------------------------|--9-------------|
E||--------------------------------------|----------------|


E||-----------7~-------7~-------7~-------7~-------7~-------7~-------7~-------7--|
B||-----10--------10~------10-------10~------10-------10~------10-------10~-----|
G||---------------------------9-----------------9-----------------9-------------|
D||--10----10-------------------------------------------------------------------|
A||-----------------------------------------------------------------------------|
E||-----------------------------------------------------------------------------|



[Breakdown]
Guitar 1:
E||-------------------------|-------------------------|
B||-------------------------|-------------------------|
G||--9~\--------------------|--9----------------------|
D||--9~\--------------------|--9----------------------|
A||--x----------------------|--x----------------------|
E||--9~\--------------------|--9----------------------|


E||-------------------------|-------------------------|
B||-------------------------|-------------------------|
G||--9~\--------------------|-------------------------|
D||--9~\--------------------|-------------------------|
A||--x----------------------|--\\pick-\\--------------|
E||--9~\--------------------|---\\slide\\-------------|


Guitar 2 (Effect):
E||-------------------------|-------------------------|
B||-------------------------|-------------------------|
G||----------------------6--|--------------------6-7--|
D||--------------6-----9----|--------------6----------|
A||------7---9-------9------|------7---9-------9------|
E||--9----------------------|--9----------------------|


E||-------------------------|-------------------------|
B||-------------------------|-------------------------|
G||----------------------6--|--------------------7-6--|
D||--------------6-----9----|--------------6----------|
A||------7---9-------9------|------7---9-------9------|
E||--9----------------------|--9----------------------|



Guitar 1:
E||-----------------------------|------------------------------|
B||-----------------------------|------------------------------|
G||-----------------------9-11--|-----------------------11-12--|
D||------------9---11---9-------|------------9---11---9--------|
A||-------11--------------------|-------11---------------------|
E||--12-------------------------|--12--------------------------|


E||-----------------------------|------------------------------|
B||-----------------------------|------------------------------|
G||-----------------------9-11--|-----------------------12-11--|
D||------------9---11---9-------|------------9---11---9--------|
A||-------11--------------------|-------11---------------------|
E||--12-------------------------|--12--------------------------|


Guitar 2 (Effect):
E||-------------------------|-------------------------|
B||-------------------------|-------------------------|
G||----------------------6--|--------------------6-7--|
D||--------------6-----9----|--------------6----------|
A||------7---9-------9------|------7---9-------9------|
E||--9----------------------|--9----------------------|


E||-------------------------|-------------------------|
B||-------------------------|-------------------------|
G||----------------------6--|--------------------7-6--|
D||--------------6-----9----|--------------6----------|
A||------7---9-------9------|------7---9-------9------|
E||--9----------------------|--9----------------------|



Guitar 1:
E||-------------------------|-------------------------|
B||-------------------------|-------------------------|
G||-------------------------|-------------------------|
D||--------------------2-4--|--------------------4-5--|
A||----------2---4---2------|----------2---4---2------|
E||--0---4------------------|--0---4------------------|


E||-------------------------|------------------------------------|
B||-------------------------|------------------------------------|
G||-------------------------|------------------------------------|
D||--------------------2-4--|------------------------------------|
A||----------2---4---2------|------------6--6--6--6--6--6--6--6--|
E||--0---4------------------|--0---4---0-------------------------|


Guitar 2 (Effect):
E||-------------------------|-------------------------|
B||-------------------------|-------------------------|
G||----------------------6--|--------------------6-7--|
D||--------------6-----9----|--------------6----------|
A||------7---9-------9------|------7---9-------9------|
E||--9----------------------|--9----------------------|


E||-------------------------|------------------------------------|
B||-------------------------|------------------------------------|
G||----------------------6--|------------------------4--4--4--4--|
D||--------------6-----9----|------------6--6--6--6--------------|
A||------7---9-------9------|------7-----------------------------|
E||--9----------------------|--9-------9-------------------------|



[Verse]
Guitar 1/2:
E||-----------------------------------|-----------------------------------|
B||-----------------------------------|-----------------------------------|
G||-----------------------------------|-----------------------------------|
D||--------6-6-6-------6-6-6-----6-6--|--------2-2-2-------2-2-2-----4-4--|
A||-----------------------------------|-----------------------------------|
E||--5-5-5-------5-5-5-------5-5------|--2-2-2-------2-2-2-------4-4------|


E||-----------------------------------|-------------------|
B||-----------------------------------|-------------------|
G||-----------------------------------|-------------------|
D||--------6-6-6-------6-6-6-----6-6--|--------2-2-2------|
A||-----------------------------------|-------------------|
E||--5-5-5-------5-5-5-------5-5------|--2-2-2-------2-2--|


Guitar 1:
E||--------------|
B||--------------|
G||--8-6---------|
D||-------7/9\7--|
A||--------------|
E||--------------|


Guitar 2:
E||--------------|
B||--------------|
G||--4-2---------|
D||-------4/6\4--|
A||--------------|
E||--------------|


Guitar 1:
E||-----------------------------------|-----------------------------------|
B||-----------------------------------|-----------------------------------|
G||--------6-6-6-------6-6-6-----6-6--|--------4-4-4-------4-4-4-----6-6--|
D||-----------------------------------|-----------------------------------|
A||--7-7-7-------7-7-7-------7-7------|--4-4-4-------4-4-4-------6-6------|
E||-----------------------------------|-----------------------------------|


E||-----------------------------------|
B||-----------------------------------|
G||--------6-6-6-------6-6-6-----6-6--|
D||-----------------------------------|
A||--7-7-7-------7-7-7-------7-7------|
E||-----------------------------------|


Guitar 2:
E||-----------------------------------|-----------------------------------|
B||-----------------------------------|-----------------------------------|
G||-----------------------------------|-----------------------------------|
D||--------6-6-6-------6-6-6-----6-6--|--------2-2-2-------2-2-2-----4-4--|
A||-----------------------------------|-----------------------------------|
E||--5-5-5-------5-5-5-------5-5------|--2-2-2-------2-2-2-------4-4------|


E||-----------------------------------|
B||-----------------------------------|
G||-----------------------------------|
D||--------6-6-6-------6-6-6-----6-6--|
A||-----------------------------------|
E||--5-5-5-------5-5-5-------5-5------|



[Chorus]
Guitar 1:
E||----------------------|-------------------------------|
B||----------------------|-------------------------------|
G||--4~------6~------6~--|--4~------6~------9--------8~--|
D||--x-------x-------x---|--x-------x-------x--------x---|
A||--4~------6~------7~--|--4~------7~------11-------9~--|
E||----------------------|-------------------------------|


E||----------------------|----------------------|
B||----------------------|----------------------|
G||--4~------6~------6~--|--4~------6~------4~--|
D||--x-------x-------x---|--x-------x-------x---|
A||--4~------6~------7~--|--4~------6~------4~--|
E||----------------------|----------------------|


Guitar 2:
E||----------------------|------------------------------|
B||----------------------|------------------------------|
G||----------------------|------------------------------|
D||--2~------4~------6~--|--2~------6~------9-------7~--|
A||--x-------x-------x---|--x-------x-------x-------x---|
E||--2~------4~------5~--|--2~------5~------9-------7~--|


E||----------------------|----------------------|
B||----------------------|----------------------|
G||----------------------|----------------------|
D||--2~------4~------6~--|--2~------4~------2~--|
A||--x-------x-------x---|--x-------x-------x---|
E||--2~------4~------5~--|--2~------4~------2~--|



[Bridge]
Guitar 1:
E||--16-------16--------------------------------------|--16-------16--------------------------------------|
B||---------------------------------------------------|---------------------------------------------------|
G||-----18-18----18-18-16-18-16-----------------------|-----18-18----18-18-16-18-16-----------------------|
D||-----------------------------18-18-18-16-18-18-18--|-----------------------------18-18-18-16-18-18-18--|
A||---------------------------------------------------|---------------------------------------------------|
E||---------------------------------------------------|---------------------------------------------------|


E||--16-------16--------------------------------------|-----------------------------------------16-19--|
B||---------------------------------------------------|--------------------16----16-17-19-17-19--------|
G||-----18-18----18-18-16-18-16-----------------------|--16----16-18-16-18----18-----------------------|
D||-----------------------------18-18-18-16-18-18-18--|-----18-----------------------------------------| x5
A||---------------------------------------------------|------------------------------------------------|
E||---------------------------------------------------|------------------------------------------------|


E||--16-------16--------------------------------------|--16-------16--------------------------------------|
B||---------------------------------------------------|---------------------------------------------------|
G||-----18-18----18-18-16-18-16-----------------------|-----18-18----18-18-16-18-16-----------------------|
D||-----------------------------18-18-18-16-18-18-18--|-----------------------------18-18-18-16-18-18-18--|
A||---------------------------------------------------|---------------------------------------------------|
E||---------------------------------------------------|---------------------------------------------------|


E||--16-------16--------------------------------------|--16-------16-------14-16--|
B||---------------------------------------------------|---------------------------|
G||-----18-18----18-18-16-18-16-----------------------|-----18-18----18-18--------|
D||-----------------------------18-18-18-16-18-18-18--|---------------------------|
A||---------------------------------------------------|---------------------------|
E||---------------------------------------------------|---------------------------|


Guitar 2:
E||---------------------------------------------------|--------------------------------------------------|
B||---------------------------------------------------|--------------------------------------------------|
G||--16-------16--------------------------------------|--16-------16-------------------------------------|
D||-----18-18----18-18-16-18-16-----------------------|-----18-18----18-18-16-18-16----------------------|
A||-----------------------------19-19-19-16-19-19-19--|-----------------------------19-19-19-16-19-19-19-|
E||---------------------------------------------------|--------------------------------------------------|


E||---------------------------------------------------|------------------------------------------------|
B||---------------------------------------------------|--------------------------------16----16-17-19--|
G||--16-------16--------------------------------------|--------------------16----16-18----18-----------|
D||-----18-18----18-18-16-18-16-----------------------|--16----16-18-16-18----18-----------------------| x4
A||-----------------------------19-19-19-16-19-19-19--|-----19-----------------------------------------|
E||---------------------------------------------------|------------------------------------------------|


E||---------------------------------------------------|--------------------------------------------------|
B||---------------------------------------------------|--------------------------------------------------|
G||--16-------16--------------------------------------|--16-------16-------------------------------------|
D||-----18-18----18-18-16-18-16-----------------------|-----18-18----18-18-16-18-16----------------------|
A||-----------------------------19-19-19-16-19-19-19--|-----------------------------19-19-19-16-19-19-19-|
E||---------------------------------------------------|--------------------------------------------------|


E||---------------------------------------------------|---------------------------|
B||---------------------------------------------------|---------------------------|
G||--16-------16--------------------------------------|--16-------16--------------|
D||-----18-18----18-18-16-18-16-----------------------|-----18-18----18-18-16-18--|
A||-----------------------------19-19-19-16-19-19-19--|---------------------------|
E||---------------------------------------------------|---------------------------|


Guitar 3:
E||-------------------------|-------------------------|
B||-------------------------|-------------------------|
G||--9~----------6~-----9~--|--9~----------4~-----8~--|
D||--9~----------6~-----9~--|--9~----------2~-----6---| x3
A||--0~----------4~-----7~--|--0~----------2~-----6---|
E||--0~----------4~-----7~--|--0~---------------------|


E||-------------------------|--------------------------------------|
B||-------------------------|--------------------------------------|
G||--9~----------6~-----9~--|--9~----------4~----------------------|
D||--9~----------6~-----9~--|--9~----------2~----------------------|
A||--0~----------4~-----7~--|--0~----------2~----------------------|
E||--0~----------4~-----7~--|--0~-----------------x-x-x-x-x-x-x-x--|


E||-----------------------------------|-----------------------------------|
B||-----------------------------------|-----------------------------------|
G||-----------------------------------|-----------------------------------|
D||--------6-6-6-------6-6-6-----6-6--|--------2-2-2-------2-2-2-----4-4--|
A||-----------------------------------|-----------------------------------|
E||--5-5-5-------5-5-5-------5-5------|--2-2-2-------2-2-2-------4-4------|


E||-----------------------------------|-------------------|
B||-----------------------------------|-------------------|
G||-----------------------------------|-------------------|
D||--------6-6-6-------6-6-6-----6-6--|--------2-2-2------|
A||-----------------------------------|-------------------|
E||--5-5-5-------5-5-5-------5-5------|--2-2-2-------2-2--|



Guitar 1:
E||--------------|
B||--------------|
G||--8-6---------|
D||-------7/9\7--|
A||--------------|
E||--------------|


Guitar 2:
E||--------------|
B||--------------|
G||--4-2---------|
D||-------4/6\4--|
A||--------------|
E||--------------|



[Verse]
Guitar 1:
E||-----------------------------------|-----------------------------------|
B||-----------------------------------|-----------------------------------|
G||--------6-6-6-------6-6-6-----6-6--|--------4-4-4-------4-4-4-----6-6--|
D||-----------------------------------|-----------------------------------|
A||--7-7-7-------7-7-7-------7-7------|--4-4-4-------4-4-4-------6-6------|
E||-----------------------------------|-----------------------------------|


E||-----------------------------------|
B||-----------------------------------|
G||--------6-6-6-------6-6-6-----6-6--|
D||-----------------------------------|
A||--7-7-7-------7-7-7-------7-7------|
E||-----------------------------------|


Guitar 2:
E||-----------------------------------|-----------------------------------|
B||-----------------------------------|-----------------------------------|
G||-----------------------------------|-----------------------------------|
D||--------6-6-6-------6-6-6-----6-6--|--------2-2-2-------2-2-2-----4-4--|
A||-----------------------------------|-----------------------------------|
E||--5-5-5-------5-5-5-------5-5------|--2-2-2-------2-2-2-------4-4------|


E||-----------------------------------|
B||-----------------------------------|
G||-----------------------------------|
D||--------6-6-6-------6-6-6-----6-6--|
A||-----------------------------------|
E||--5-5-5-------5-5-5-------5-5------|



[Chorus]
Guitar 1:
E||----------------------|-------------------------------|
B||----------------------|-------------------------------|
G||--4~------6~------6~--|--4~------6~------9--------8~--|
D||--x-------x-------x---|--x-------x-------x--------x---|
A||--4~------6~------7~--|--4~------7~------11-------9~--|
E||----------------------|-------------------------------|


E||----------------------|----------------------|
B||----------------------|----------------------|
G||--4~------6~------6~--|--4~------6~------4~--|
D||--x-------x-------x---|--x-------x-------x---|
A||--4~------6~------7~--|--4~------6~------4~--|
E||----------------------|----------------------|


Guitar 2:
E||----------------------|------------------------------|
B||----------------------|------------------------------|
G||----------------------|------------------------------|
D||--2~------4~------6~--|--2~------6~------9-------7~--|
A||--x-------x-------x---|--x-------x-------x-------x---|
E||--2~------4~------5~--|--2~------5~------9-------7~--|


E||----------------------|----------------------|
B||----------------------|----------------------|
G||----------------------|----------------------|
D||--2~------4~------6~--|--2~------4~------2~--|
A||--x-------x-------x---|--x-------x-------x---|
E||--2~------4~------5~--|--2~------4~------2~--|



[Outro]
Guitar 1:
E||----------------------|
B||----------------------|
G||--4~------6~------4~--|
D||--x-------x-------x---|
A||--4~------6~------4~--|
E||----------------------|


E||--------------------------|
B||--------------------------|
G||--4~--------6~--------4~--|
D||--x---------x---------x---|
A||--4~--------6~--------4~--|
E||--------------------------|


E||------------------------------|
B||------------------------------|
G||--4~----------6~----------4~--|
D||--x-----------x-----------x---|
A||--4~----------6~----------4~--|
E||------------------------------|


E||----------------------------------|
B||----------------------------------|
G||--4~------------6~------------4~--|
D||--x-------------x-------------x---|
A||--4~------------6~------------4~--|
E||----------------------------------|


Guitar 2:
E||----------------------|
B||----------------------|
G||----------------------|
D||--2~------4~------2~--|
A||--x-------x-------x---|
E||--2~------4~------2~--|


E||--------------------------|
B||--------------------------|
G||--------------------------|
D||--2~--------4~--------2~--|
A||--x---------x---------x---|
E||--2~--------4~--------2~--|


E||------------------------------|
B||------------------------------|
G||------------------------------|
D||--2~----------4~----------2~--|
A||--x-----------x-----------x---|
E||--2~----------4~----------2~--|


E||----------------------------------|
B||----------------------------------|
G||----------------------------------|
D||--2~------------4~------------6~--|
A||--x-------------x-------------x---|
E||--2~------------4~------------5~--|




Tablature Legend
----------------
 h   hammer-on
 p   pull-off
 b   bend
 pb  pre-bend
 r   release bend
 ~   hold / vibrato
 .   palm mute
 /   slide up
 \   slide down
 *   pinch harmonic
 '   natural harmonic
 x   mute note
 T   tap

            
            
Suggest correction
Creating personal tab
Creating personal tab
You can edit any tab online and save it as your Personal.

You can edit, replace or remove any tab part or add personal notes – all changes will be seen only by you.

Personal tabs can be accessed anytime from any device, even offline.
Learn more »
comments
print report bad tab
guest
You may want to rate the tab now too:
select rating
Wanna post a correction for this tab? Suggest correction