Oops, an error
Loading. Please wait.

The Fun In Dysfunction tab

364 views 6 this week
no commentswrite comment
1 2 3 4 5
2 more votes to show rating
add to favorites
×
Save as Personal and add changes to this tab that will be seen only by you. Learn more ›
×
You can save this tab as Personal to edit and correct it or add notes. All changes will be seen only by you. Learn more »
launch autoscroll
font size
0
reset
how to read this tab
guitar tuner
edit
Autoscroll
slow
fast
+/-
esc
set tempo
stop
Author
Difficulty
Tabbed by: Joshua Garcia (joshuag523@aol.com)

Tabs for the song: The 'Fun' In Dysfunction by Hail The Sun
Please rate and let me know if you have any corrections. Thank you.


To view my guitar cover of this song, go here:
https://www.youtube.com/watch?v=qiXxEf5oET4


Tuning: Standard (E A D G B E)


[Intro]
Guitar 1:
E||-------------------------------|---------------------------|
B||-------------------------------|---------------------------|
G||-------------------------------|---------------------------|
D||------11------------11---------|------7---7-------7---6----|
A||--5/9----9----9-5/9----9----9--|--2/5---5---5-2/5---5---5--|
E||-----------10------------10----|---------------------------|


E||---------------------------|----------------------------------|
B||---------------------------|----------------------------------|
G||---------------------------|----------------------------------|
D||------9-----------9--------|-------12----12------12----11-----|
A||--4/7---7---7-4/7---7------|--7/11----11----7/11----11----11--|
E||----------9-----------9-5--|----------------------------------|


Guitar 1/2:
E||-------------------------------|---------------------------|
B||-------------------------------|---------------------------|
G||-------------------------------|---------------------------|
D||------11------------11---------|------7---7-------7---6----|
A||--5/9----9----9-5/9----9----9--|--2/5---5---5-2/5---5---5--|
E||-----------10------------10----|---------------------------|


E||---------------------------|----------------------------------|
B||---------------------------|----------------------------------|
G||---------------------------|----------------------------------|
D||------9-----------9--------|-------12----12------12----11-----| x2
A||--4/7---7---7-4/7---7------|--7/11----11----7/11----11----11--|
E||----------9-----------9-5--|----------------------------------|


E||----------------------------------------------------|
B||--7---7-------7---7-------7---7-----7---7-------7~--|
G||--6---6-------6---6-------6---6-----6---6-------6~--|
D||--x---x---x-x-x---x---x-x-x---x---x-x---x---x-x-x---|
A||--5---5---x-x-5---5---x-x-5---5---x-5---5---x-x-5~--|
E||----------x-x---------x-x---------x---------x-x-----|



[Verse]
Guitar 1:
E||-------------------------------------------------|
B||--------7------------------------7------------7--|
G||-----9------------------------9------------9-----|
D||---------------------------7------------9--------|
A||--9----------------------------------------------|
E||-------------------------------------------------|


E||-------------------------------------------------|
B||--------7------------------------7------------7--|
G||-----9------------------------9------------9-----|
D||---------------------------7------------9--------|
A||--9----------------------------------------------|
E||-------------------------------------------------|


E||-------------------------------------------------|
B||--------10-----------------------7------------7--|
G||-----9------------------------9------------9-----|
D||---------------------------7------------9--------|
A||--9----------------------------------------------|
E||-------------------------------------------------|


E||-------------------------------------------------|
B||--------7------------------------7------------7--|
G||-----9------------------------9------------9-----|
D||---------------------------7------------9--------|
A||--9----------------------------------------------|
E||-------------------------------------------------|


E||-----------|
B||--------7--|
G||-----9-----|
D||-----------|
A||--9--------|
E||-----------|


Guitar 2:
E||-------------------------------------------------|
B||--------3------------------------3------------3--|
G||-----6------------------------6------------6-----|
D||--0------------------------4------------5--------|
A||-------------------------------------------------|
E||-------------------------------------------------|


E||-------------------------------------------------|
B||--------3------------------------3------------3--|
G||-----6------------------------6------------6-----|
D||--0------------------------4------------5--------|
A||-------------------------------------------------|
E||-------------------------------------------------|


E||-------------------------------------------------|
B||--------7------------------------3------------3--|
G||-----6------------------------6------------6-----|
D||--0------------------------4------------5--------|
A||-------------------------------------------------|
E||-------------------------------------------------|


E||-------------------------------------------------|
B||--------3------------------------3------------3--|
G||-----6------------------------6------------6-----|
D||--0------------------------4------------5--------|
A||-------------------------------------------------|
E||-------------------------------------------------|


E||-----------|
B||--------3--|
G||-----6-----|
D||--0--------|
A||-----------|
E||-----------|


Guitar 1/2:
E||---------------------------------------------------------------|
B||---------------------------------------------------------------|
G||--9-9-9-9-9-9-9-9-9-9-9-9-11-11-11-11-11-11-11-11-11-11-11-11--|
D||--x-x-x-x-x-x-x-x-x-x-x-x-x--x--x--x--x--x--x--x--x--x--x--x---|
A||--9-9-9-9-9-9-9-9-9-9-9-9-10-10-10-10-10-10-10-10-10-10-10-10--|
E||---------------------------------------------------------------|



[Riff 1]
Guitar 1/2:
E||---------------------------------------------------------------------------|
B||--14-14-14-14-14-14-14-14-14-14-14-14-14-14-14-14-14-14-14-14-14-14-14-14--|
G||--x--x--x--x--x--x--x--x--x--x--x--x--x--x--x--x--x--x--x--x--x--x--x--x---|
D||--12-12-12-12-12-12-12-12-12-12-12-12-12-12-12-12-12-12-12-12-12-12-12-12--|
A||---------------------------------------------------------------------------|
E||---------------------------------------------------------------------------|


E||---------------------------------------------------------------|
B||---------------------------------------------------------------|
G||--9-9-9-9-9-9-9-9-9-9-9-9-11-11-11-11-11-11-11-11-11-11-11-11--|
D||--x-x-x-x-x-x-x-x-x-x-x-x-x--x--x--x--x--x--x--x--x--x--x--x---| x2
A||--9-9-9-9-9-9-9-9-9-9-9-9-10-10-10-10-10-10-10-10-10-10-10-10--|
E||---------------------------------------------------------------|


E||---------------------------------------------------------------------------|
B||--14-14-14-14-14-14-14-14-14-14-14-14-14-14-14-14-14-14-14-14-14-14-14-14--|
G||--x--x--x--x--x--x--x--x--x--x--x--x--x--x--x--x--x--x--x--x--x--x--x--x---|
D||--12-12-12-12-12-12-12-12-12-12-12-12-12-12-12-12-12-12-12-12-12-12-12-12--|
A||---------------------------------------------------------------------------|
E||---------------------------------------------------------------------------|


E||------------------------------------------------------------|
B||------------------------------------------------------------|
G||--9-9-9-9-9-9-9-9-9-9-9-9-11-11-11-11-11-11-11----11----11--|
D||--x-x-x-x-x-x-x-x-x-x-x-x-x--x--x--x--x--x--x-----x-----x---|
A||--9-9-9-9-9-9-9-9-9-9-9-9-10-10-10-10-10-10-10----10----10--|
E||------------------------------------------------------------|



[Interlude]
Guitar 1:
E||---------------------------------------------------|
B||---------------------------------------------------|
G||---------------------------------------------------|
D||--0-0-0-0-0-0-0-0-0-0-0-0-0-0-0-0-0-0-0-0-0-0-0-0--| x4
A||--2-2-2-2-2-2-2-2-2-2-2-2-2-2-2-2-2-2-2-2-2-2-2-2--|
E||---------------------------------------------------|
     . . . . . . . . . . . . . . . . . . . . . . . .


Guitar 2:
E||---------------------------------------------------|
B||---------------------------------------------------|
G||--7-7-4-7-7-4-7-7-4-7-7-4-7-6-4-7-6-4-7-6-4-7-6-4--|
D||---------------------------------------------------| x5
A||---------------------------------------------------|
E||---------------------------------------------------|
     . . . . . . . . . . . . . . . . . . . . . . . .


E||---------------------------|
B||---------------------------|
G||--7-7-4-7-7-4-7-7-4-7-7-4--|
D||---------------------------|
A||---------------------------|
E||---------------------------|
     . . . . . . . . . . . .


Guitar 3 (Dub):
E||----------------------------------------------------------|
B||--7------7------7------7------10------10------10------10--|
G||--7------7------7------7------9-------9-------9-------9---|
D||----------------------------------------------------------|
A||----------------------------------------------------------|
E||----------------------------------------------------------|


E||------------------------------------------------------|
B||--8------8------8------8------7------7------7------7--|
G||--7------7------7------7------7------7------7------7--|
D||------------------------------------------------------|
A||------------------------------------------------------|
E||------------------------------------------------------|


E||----------------------------------------------------------|
B||--7------7------7------7------10------10------10------10--|
G||--7------7------7------7------9-------9-------9-------9---|
D||----------------------------------------------------------|
A||----------------------------------------------------------|
E||----------------------------------------------------------|


E||--------------------------|
B||--8------8------8------8--|
G||--7------7------7------7--|
D||--------------------------|
A||--------------------------|
E||--------------------------|



[Breakdown]
Guitar 1/2:
E||-----------------------------14-19-14--------|---------------------------|
B||--------------------------15----------15-----|---------------------------|
G||-----------------------16----------------16--|---------------------------|
D||--4------4------4----------------------------|--4------4------4---4-4-4--|
A||--2------2------2----------------------------|--2------2------2---2-2-2--|
E||--2------2------2----------------------------|--2------2------2---2-2-2--|


E||---------------------------|----------------------------------'7~--|
B||---------------------------|-------------------------------'7------|
G||---------------------------|----------------------------'5---------|
D||--4------4------4---4---4--|--4------4------4---4-4-4--------------|
A||--2------2------2---2---2--|--2------2------2---2-2-2--------------|
E||--2------2------2---2---2--|--2------2------2---2-2-2--------------|



[Riff 2]
Guitar 1:
E||---------------------------------2--|-----------------------2------------|
B||-------------------------------3----|-------------------------3----------|
G||-----------------------------4------|--4------4------4----------4--------|
D||--4------4------4----------4--------|--5------5------4------------4------|
A||--2------2------2------2-5----------|--x------x------x--------------5-2--|
E||--2------2------2-------------------|--3------3------2-------------------|


E||---------------------------------2--|------------------------------------|
B||-------------------------------3----|------------------------------------|
G||-----------------------------4------|--4------4------4---4---4-----------|
D||--4------4------4----------4--------|--5------5------4---4---4-----------|
A||--2------2------2------2-5----------|--x------x------x---x---x-----------|
E||--2------2------2-------------------|--3------3------2---2---2-----------|


Guitar 2:
E||------------------------------------|------------------------------------|
B||---------------------------------3--|-----------------------3------------|
G||-------------------------------4----|--4------4------4--------4----------|
D||--4------4------4------------4------|--5------5------4----------4--------|
A||--2------2------2--------2-5--------|--x------x------x------------5-2----|
E||--2------2------2------3------------|--3------3------2----------------3--|


E||------------------------------------|------------------------------------|
B||---------------------------------3--|------------------------------------|
G||-------------------------------4----|--4------4------4---4---4-----------|
D||--4------4------4------------4------|--5------5------4---4---4-----------|
A||--2------2------2--------2-5--------|--x------x------x---x---x-----------|
E||--2------2------2------3------------|--3------3------2---2---2-----------|



[Verse]
Guitar 1:
E||-------------------------------------------------|
B||--------7------------------------7------------7--|
G||-----9------------------------9------------9-----|
D||---------------------------7------------9--------|
A||--9----------------------------------------------|
E||-------------------------------------------------|


E||-------------------------------------------------|
B||--------10-----------------------7------------7--|
G||-----9------------------------9------------9-----|
D||---------------------------7------------9--------|
A||--9----------------------------------------------|
E||-------------------------------------------------|


Guitar 2:
E||-------------------------------------------------|
B||--------3------------------------3------------3--|
G||-----6------------------------6------------6-----|
D||--0------------------------4------------5--------|
A||-------------------------------------------------|
E||-------------------------------------------------|


E||-------------------------------------------------|
B||--------7------------------------3------------3--|
G||-----6------------------------6------------6-----|
D||--0------------------------4------------5--------|
A||-------------------------------------------------|
E||-------------------------------------------------|


Guitar 3 (Dub):
E||---------------------------------------------------------|
B||---------------------------------------------------------|
G||------4-----4-----4-----4-----11-----11-----9-----9------|
D||--0-0---0-0---0-0---0-0---0-0----0-0----0-0---0-0---0-0--|
A||---------------------------------------------------------|
E||---------------------------------------------------------|
     . . . . . . . . . . . . . . .  . . .  . . . . . . . .


E||------------------------------------------------|
B||------------------------------------------------|
G||--4-----4-----4------------11---11-------9------|
D||----0-0---0-0---0-0-0---------------------------|
A||----------------------10-------------9-------9--|
E||------------------------------------------------|
     . . . . . . . . . .



[Riff 3]
Guitar 1:
E||---------------------------------------------------------|
B||---------------------------------------------------------|
G||--4-4-4-4-4-4-4-4-4-4-4-4-11-11-11-11-11-11-9-9-9-9-9-9--|
D||--x-x-x-x-x-x-x-x-x-x-x-x-x--x--x--x--x--x--x-x-x-x-x-x--|
A||--2-2-2-2-2-2-2-2-2-2-2-2-9--9--9--9--9--9--7-7-7-7-7-7--|
E||---------------------------------------------------------|


E||---------------------------------------------------------------|
B||---------------------------------------------------------------|
G||--7-7-7-7-7-7-7-7-7-7-7-7-12-12-12-12-12-12-11-11-11-11-11-11--|
D||--x-x-x-x-x-x-x-x-x-x-x-x-x--x--x--x--x--x--x--x--x--x--x--x---| x2
A||--5-5-5-5-5-5-5-5-5-5-5-5-10-10-10-10-10-10-9--9--9--9--9--9---|
E||---------------------------------------------------------------|


Guitar 2:
E||---------------------------------------------------------------|
B||---------------------------------------------------------------|
G||---------------------------------------------------------------|
D||--5-5-5-5-5-5-5-5-5-5-5-5-12-12-12-12-12-12-11-11-11-11-11-11--|
A||--x-x-x-x-x-x-x-x-x-x-x-x-x--x--x--x--x--x--x--x--x--x--x--x---|
E||--3-3-3-3-3-3-3-3-3-3-3-3-10-10-10-10-10-10-9--9--9--9--9--9---|


E||---------------------------------------------------------------|
B||---------------------------------------------------------------|
G||---------------------------------------------------------------|
D||--5-5-5-5-5-5-5-5-5-5-5-5-14-14-14-14-14-14-12-12-12-12-12-12--| x2
A||--x-x-x-x-x-x-x-x-x-x-x-x-x--x--x--x--x--x--x--x--x--x--x--x---|
E||--3-3-3-3-3-3-3-3-3-3-3-3-12-12-12-12-12-12-10-10-10-10-10-10--|



[Riff 4]
Guitar 1:
E||---------------------------------------------------------|
B||---------------------------------------------------------|
G||--4-4-4-4-4-4-4-4-4-4-4-4-11-11-11-11-11-11-9-9-9-9-9-9--|
D||--x-x-x-x-x-x-x-x-x-x-x-x-x--x--x--x--x--x--x-x-x-x-x-x--|
A||--2-2-2-2-2-2-2-2-2-2-2-2-9--9--9--9--9--9--7-7-7-7-7-7--|
E||---------------------------------------------------------|


Guitar 2:
E||---------------------------------------------------------|
B||---------------------------------------------------------|
G||--4-4-4-4-4-4-4-4-4-4-4-4-11-11-11-11-11-11-9-9-9-9-9-9--|
D||--x-x-x-x-x-x-x-x-x-x-x-x-x--x--x--x--x--x--x-x-x-x-x-x--|
A||--2-2-2-2-2-2-2-2-2-2-2-2-9--9--9--9--9--9--7-7-7-7-7-7--|
E||---------------------------------------------------------|


E||---------------------------------------------------------------|
B||---------------------------------------------------------------|
G||--7-7-7-7-7-7-7-7-7-7-7-7-11-11-11-11-11-11-11-11-11-11-11-11--|
D||--x-x-x-x-x-x-x-x-x-x-x-x-x--x--x--x--x--x--x--x--x--x--x--x---| x2
A||--5-5-5-5-5-5-5-5-5-5-5-5-9--9--9--9--9--9--9--9--9--9--9--9---|
E||---------------------------------------------------------------|


Guitar 1/2:
E||------|
B||------|
G||--4~--|
D||--x---|
A||--2~--|
E||------|



[Interlude 2]
Guitar 1:
E||--------------------------14----------14----------|--------------------------------------------------|
B||--15----------15--------------15----------15------|--14----------14----------12----------12----------|
G||------16----------16--------------16----------16--|------14----------14----------14----------14------|
D||----------19----------19--------------------------|----------16----------16----------16----------16--|
A||--------------------------------------------------|--------------------------------------------------|
E||--------------------------------------------------|--------------------------------------------------|


E||--14----------14----------------------------------|--------------------------------------------------|
B||------15----------15------15----------15----------|--14----------14----------12----------12----------|
G||----------16----------16------16----------16------|------14----------14----------14----------14------|
D||----------------------------------19----------19--|----------16----------16----------16----------16--|
A||--------------------------------------------------|--------------------------------------------------|
E||--------------------------------------------------|--------------------------------------------------|


E||--------------------------------------------------|--------------------------------------------------|
B||--8-----------8-----------8-----------8-----------|--8-----------8-----------8-----------8-----------|
G||------11----------11----------11----------11------|------11----------11----------11----------11------|
D||----------12----------12----------11----------11--|----------11----------11----------11----------11--|
A||--------------------------------------------------|--------------------------------------------------|
E||--------------------------------------------------|--------------------------------------------------|


Guitar 2:
E||---------------------------------|
B||---------------------------------|
G||--------------3-3-3-3-3-3-3-3-3--|
D||--2-2-2-2-2-2-4-4-4-4-4-4-4-4-4--|
A||--2-2-2-2-2-2-x-x-x-x-x-x-x-x-x--|
E||--0-0-0-0-0-0-2-2-2-2-2-2-2-2-2--|
     . . . .



[Bridge]
Guitar 1:
E||--------------------------14----------14----------|--------------------------------------------------|
B||--15----------15--------------15----------15------|--14----------14----------12----------12----------|
G||------16----------16--------------16----------16--|------14----------14----------14----------14------|
D||----------19----------19--------------------------|----------16----------16----------16----------16--|
A||--------------------------------------------------|--------------------------------------------------|
E||--------------------------------------------------|--------------------------------------------------|


E||--14----------14----------------------------------|--------------------------------------------------|
B||------15----------15------15----------15----------|--14----------14----------14----------------------|
G||----------16----------16------16----------16------|------14----------14----------14------------------|
D||----------------------------------19----------19--|----------16----------16----------16--------------|
A||--------------------------------------------------|--------------------------------------------------|
E||--------------------------------------------------|--------------------------------------------------|


E||--------------------------------------------------|--------------------------------------------------|
B||--12----------12----------8-----------8-----------|--8-----------8-----------8-----------8-----------|
G||------14----------14----------11----------11------|------11----------11----------11----------11------|
D||----------16----------16----------12----------12--|----------11----------11----------11----------11--| x2
A||--------------------------------------------------|--------------------------------------------------|
E||--------------------------------------------------|--------------------------------------------------|


Guitar 2:
E||----------------------------------------------------------|
B||--3-3-3-3-3-3-------------7---7-------7---7--3-3-3-3-3-3--|
G||--4-4-4-4-4-4-------------6---6-------6---6--4-4-4-4-4-4--|
D||--x-x-x-x-x-x-2-2-2-2-2-2-x---x-------x---x--x-x-x-x-x-x--|
A||--2-2-2-2-2-2-2-2-2-2-2-2-5---5-------5---5--x-x-x-x-x-x--|
E||--------------0-0-0-0-0-0--------------------3-3-3-3-3-3--|


E||----------------------------------------------------------|
B||--------------3-3-3-3-3-3-7---7-------7---7-------7---7---|
G||--------------4-4-4-4-4-4-6---6-------6---6-------6---6---|
D||--2-2-2-2-2-2-x-x-x-x-x-x-x---x-------x---x-------x---x---|
A||--2-2-2-2-2-2-2-2-2-2-2-2-5---5-------5---5-------5---5---|
E||--0-0-0-0-0-0---------------------------------------------|


E||---------------------------------------------------|
B||--3-3-3-3-3-3--------------------------------------|
G||--4-4-4-4-4-4-------------3-3-3-3-3-3-3-3-3-3-3-3--|
D||--x-x-x-x-x-x-2-2-2-2-2-2-4-4-4-4-4-4-4-4-4-4-4-4--| x2
A||--x-x-x-x-x-x-2-2-2-2-2-2-x-x-x-x-x-x-x-x-x-x-x-x--|
E||--3-3-3-3-3-2-0-0-0-0-0-0-2-2-2-2-2-2-2-2-2-2-2-2--|



Guitar 1:
E||--------------------------------------------------|
B||--8-----------8-----------8-----------8-----------|
G||------11----------11----------11----------11------|
D||----------11----------11----------11----------11--|
A||--------------------------------------------------|
E||--------------------------------------------------|


Guitar 2:
E||---------------------------|
B||--3-3-3-3-3-3--------------|
G||--4-4-4-4-4-4--------------|
D||--x-x-x-x-x-x-2-2-2-2-2-2--|
A||--2-2-2-2-2-2-2-2-2-2-2-2--|
E||--------------0-0-0-0-0-0--|


Guitar 1/2:
E||------------------------------------------------------------------|
B||--7---7-------7---7-------7---7----7---7-------7---7-------7---7--|
G||--6---6-------6---6-------6---6----6---6-------6---6-------6---6--|
D||--x---x-------x---x-------x---x----x---x-------x---x-------x---x--|
A||--5---5-------5---5-------5---5----5---5-------5---5-------5---5--|
E||------------------------------------------------------------------|



[Outro]
Guitar 1:
E||------|
B||--7\--|
G||--6\--|
D||--x\--|
A||--5\--|
E||------|


Guitar 2:
E||-------------------------------|
B||-------------------------------|
G||-------------------------------|
D||------11------------11---------|
A||--5/9----9----9-5/9----9----9--|
E||-----------10------------10----|


Guitar 1/2:
E||---------------------------|
B||---------------------------|
G||---------------------------|
D||------7---7-------7---6----|
A||--2/5---5---5-2/5---5---5--|
E||---------------------------|


E||---------------------------|----------------------------------|
B||---------------------------|----------------------------------|
G||---------------------------|----------------------------------|
D||------9-----------9--------|-------12----12------12----11-----|
A||--4/7---7---7-4/7---7------|--7/11----11----7/11----11----11--|
E||----------9-----------9-5--|----------------------------------|



Guitar 1/2:
E||-------------------------------|---------------------------|
B||-------------------------------|---------------------------|
G||-------------------------------|---------------------------|
D||------11------------11---------|------7---7-------7---6----|
A||--5/9----9----9-5/9----9----9--|--2/5---5---5-2/5---5---5--|
E||-----------10------------10----|---------------------------|


E||---------------------------|----------------------------------|
B||---------------------------|----------------------------------|
G||---------------------------|----------------------------------|
D||------9-----------9--------|-------12----12------12----11-----| x3
A||--4/7---7---7-4/7---7------|--7/11----11----7/11----11----11--|
E||----------9-----------9-5--|----------------------------------|



Guitar 1/2:
E||-----------------------------------------------|
B||--7---7-----7---7-----7---7------7---7-----7\--|
G||--6---6-----6---6-----6---6------6---6-----6\--|
D||--x---x---x-x---x---x-x---x--x-x-x---x---x-x\--|
A||--5---5---x-5---5---x-5---5--x-x-5---5---x-5\--|
E||----------x---------x--------x-x---------x-----|





*****************************
-Tablature Legend-

h   hammer-on
p   pull-off
b   bend
pb  pre-bend
r   release bend
~   hold / vibrato
.   palm mute
/   slide up
\   slide down
*   pinch harmonic
'   natural harmonic
x   mute note
T   tap

*****************************
Suggest correction
Creating personal tab
Creating personal tab
You can edit any tab online and save it as your Personal.

You can edit, replace or remove any tab part or add personal notes – all changes will be seen only by you.

Personal tabs can be accessed anytime from any device, even offline.
Learn more »
Give kudos to tab author, rate the tab!
1 2 3 4 5
comments
print report bad tab
guest
You may want to rate the tab now too:
select rating
Wanna post a correction for this tab? Suggest correction