Oops, an error
Loading. Please wait.

Starving Tab

version 2
version 2

Whole song

Video

760 views 267 this week
no commentswrite comment
1 2 3 4 5
2 more votes to show rating
add to favorites
launch autoscroll
font size
0
reset
how to read this tab
guitar tuner
Autoscroll
slow
fast
+/-
esc
set tempo
stop
Help us to improve Ultimate-Guitar.com Take our survey!
×
Author
Difficulty
Capo
advanced
4th fret
Andrew Foy's arrangement
https://www.youtube.com/watch?v=oIROrCljc7A

 [Intro]
e|---------------------------------------------------------------------------|
B|---------------------------------------------------------------------------|
G|---------------------------------------------------------------------------|
D|----2------3--------10------9-------2------3-------10-------12-------------|
A|--3----x---5-----12-----x---10----3----x---5----12------x---14-------------|
E|-------x----------------x--------------x----------------x------------------|
  
  [Verse]
e|---------------------------------------------------------------------------|
B|--3/5--------1/3-----------------1-----------1--3----3/5--------1/3--------|
G|------5-----------2---2/5--2p0--------0-0-2---------------5----------2-----|
D|-------------0--------------------------------------------------0----------|
A|--3------x------------x------0-----x---------x-------3-------x-------------|
E|---------x------------x------------x--3------x---------------x-------------|

e|---------------------------------------------------------------------------|
B|-----------1-------------1-3-----------------------5-5h8--5----------2/3~--|
G|-2/5--2p0-------0-0-0-2----------0-----2-2/5-5/7-------------7p5-----------|
D|---------------------------------------0----------------------------------0|
A|-x------0----x-----------x-----3----x--------------x------0-------x--------|
E|-x-----------x--3--------x----------x--------------x--------------x--2/3~--|

e|--------0------------------------------------------------------------------|
B|-----------1-----1h3-----1--------1------------1--3-3p1-1-----------0h1p0--|
G|-----0-----------2----2-----2p0---2-----0-0-2-----------------2------------|
D|-----------------3----------------2---------------------------3------------|
A|--x-----3-----x----------x----0------x---------x----------x-------x--------|
E|--x-----------x----------x-----------x--3------x-----0----x-1-----x--------|

                    [Chorus] o
e|--------------------------------------------------------0------------------|
B|-------1-------------------1h3-----3-3-3-------2/3-3------1h3--1----1------|
G|--0h2-------0--------------0--------------2-2-------------0----0----0------|
D|------------0--0-----------2-------3---------------------------------------|
A|--0------x-------10\-----3------x---------x----0-----x-----------x---------|
E|---------x--3-------------------x---------x----------x--3--------x---------|

e|------------------------------0----------------------0---------------------|
B|---1h3---3-3-3-------2/3-3-------1h3--1----1-------3--------1h3-3-----3----|
G|---0-----2-----2-2---------------0----0----0----------------2--------------|
D|---------3------------------------------------------------3----------------|
A|-3-----x-------x-----0-----x-------------x------3------x-----------x-------|
E|-------x-------x-----------x--3----------x-------------x-----------x-------|

e|-------------------0-----------------------------------------------0-------|
B|--2/3-2/3--(2/3)------1h3------1-----1h3-----3-3-3-------2/3-3--------1h3--|
G|------------(0)-------0--------0-----0--------------2-2---------------0----|
D|---------------------------------------------3-----------------------------|
A|--0----------x--------------x------3------x---------x----0------x----------|
E|-------------x-----3--------x-------------x---------x-----------x--3-------|
                                                                   
e|---------------------------------------------------------------------------|
B|-1---1-------------------------------------------------------------<12>----|
G|-0---0------------7------------7-7h9p7------------7----------------<12>----|
D|---------------10-----10----10---------10p7-----7-7----------9-------------|
A|---x----------------x----8-------------------0-------x----10----x----------|
E|---x------/8--------x--------------------------------x----------x----------|

e|----------------------------10----8-----------8----------------------------|
B|-------------7------------10--------10p8------8--------------<12>----------|
G|-------------9-----0----10------------------0----------------<12>----<7>---|
D|--9/10----10----------------------------------------0----9-----------<7>---|
A|--9/10----------x-----8--------x----------0------x----10----------x--------|
E|-------8--------x--------------x-----------------x----------------x--------|

e|--------0----------------------------------0-------------------------------|
B|------3--------1h3-3----3--2/3-2/3--(2/3)------1h3----1----1h3----3-3-3----|
G|---------------2---------------------(0)-------0------0----0---------------|
D|--0----------3----------------------------------------------------3--------|
A|----3-----x-----------x----0----------x-------------x----3-----x-----------|
E|----------x-----------x---------------x----3--------x----------x-----------|

                              [Verse]
e|-----------------0---------------------------------------------------------|
B|-------2/3-3-3------3-1-1---3/5--------1/3---------------1-----------1--3--|
G|--2-2---------------0-0----------5----------2--2/5--2p0-------0-0-2--------|
D|---------------------------------------0-----------------------------------|
A|--x----0--------------------3-------x----------x------0----x---------x-----|
E|--x--------------3------------------x----------x-----------x--3------x-----|

e|---------------------------------------------------------------------------|
B|-3/5-------1/3--------------1-----------1-3---------------------5--5h8--5--|
G|-----5---------2--2/5--2p0-------0-0-2----------0----2-2/5-5/7-------------|
D|-----------0-----------------------------------------0---------------------|
A|-3------x---------x------0----x---------x-----3----x------------x-------0--|
E|--------x---------x-----------x--3------x----------x------------x----------|

e|------------------------0--------------------------------------------------|
B|-----------2/3-------------1-----1h3-----1--------1------------1--3-3p1-1--|
G|---7p5---------------0-----------2----2-----2p0---2-----0-0-2--------------|
D|----------------0----------------3----------------2------------------------|
A|--------x---------x-----3-----x----------x----0-------x--------x-----------|
E|--------x--2/3----x-----------x----------x------------x-3------x-----0-----|

e|------------------------------------------------0-------------3------------|
B|-----------0h1p0-------1------------1--3-3---p1---------------1--1h3----1--|
G|-----2------------0h2--------0-0-2----------------------2----(2)--------0--|
D|-----3--------------------------------------------------3------------------|
A|-x------x---------0-------x---------x--------------x-------x-----0---x--3--|
E|-x-1----x-----------------x--3------x------0-------x--1----x---------x-----|

           [Chorus] o
e|------------------------------------------------0--------------------------|
B|-----1--1--1------1h3----3-3-3--------2/3-3--------1h3--1-----1------------|
G|-----0--0--0------0--------------2-2---------------0----0-----0------------|
D|-----2--2--2------2------3-------------------------------------------------|
A|-----x--x-------3-----x--------x------0------x-------------x---------------|
E|--3--x--x-------------x--------x-------------x--3----------x---------------|
            
e|------------------------------0----------------------0---------------------|
B|---1h3---3-3-3-------2/3-3-------1h3--1----1-------3--------1h3-3-----3----|
G|---0-----2-----2-2---------------0----0----0----------------2--------------|
D|---------3------------------------------------------------3----------------|
A|-3-----x-------x-----0-----x-------------x------3------x-----------x-------|
E|-------x-------x-----------x--3----------x-------------x-----------x-------|

e|-------------------0-----------------------------------------------0-------|
B|--2/3-2/3--(2/3)------1h3------1-----1h3-----3-3-3-------2/3-3--------1h3--|
G|------------(0)-------0--------0-----0--------------2-2---------------0----|
D|---------------------------------------------3-----------------------------|
A|--0----------x--------------x------3------x---------x----0------x----------|
E|-------------x-----3--------x-------------x---------x-----------x--3-------|
                                                                   
e|---------------------------------------------------------------------------|
B|-1---1-------------------------------------------------------------<12>----|
G|-0---0------------7------------7-7h9p7------------7----------------<12>----|
D|---------------10-----10----10---------10p7-----7-7----------9-------------|
A|---x----------------x----8-------------------0-------x----10----x----------|
E|---x------/8--------x--------------------------------x----------x----------|

e|----------------------------10----8-----------8----------------------------|
B|-------------7------------10--------10p8------8--------------<12>----------|
G|-------------9-----0----10------------------0----------------<12>----<7>---|
D|--9/10----10----------------------------------------0----9-----------<7>---|
A|--9/10----------x-----8--------x----------0------x----10----------x--------|
E|-------8--------x--------------x-----------------x----------------x--------|

e|--------0----------------------------------0-------------------------------|
B|------3--------1h3-3----3--2/3-2/3--(2/3)------1h3----1----1h3----3-3-3----|
G|---------------2---------------------(0)-------0------0----0---------------|
D|--0----------3----------------------------------------------------3--------|
A|----3-----x-----------x----0----------x-------------x----3-----x-----------|
E|----------x-----------x---------------x----3--------x----------x-----------|
 
                             [Breakdown]
e|-----------------0-----------0---0---------0----------h5--5---------0------|
B|-------2/3-3-3------3-1-1----1---1----1h3--3----------h5--5----0h3--3------|
G|--2-2---------------0-0------0---0----2----2----------h5--5----0----0------|
D|-----------------------------0h2-2----2------------------------0-----------|
A|--x----0---------------------3------x--------x--x--x--------x--0------x-x-x|
E|--x--------------3-----------0------x--------x--x--x--------x--3------x-x-x|

    o
e|-----10-----10--10---9/10-10----10--10----/10---10----10--10/12----8---8---|
B|-----8------8---8----9/10-10----10--------/10---10----10-----------8---8---|
G|-------------------------------------------------------------------0-0-----|
D|---------------------------------------------------------------------------|
A|------------x--------7/8-----8--x-----------0------0--x----------x-------x-|
E|--8------8--x---8---------------x---------------------x----------x-------x-|

e|-------0----------------------------------0--------------------------------|
B|-8\---3--------1h3-3----3--2/3-2/3-(2/3)-----1h3----1----1h3----3-3-3------|
G|---------------2--------------------(0)------0------0----0-------------2-2-|
D|-------------3--------------------------------------------------3----------|
A|-----3----x----------x-----0---------x------------x----3-----x---------x---|
E|----------x----------x---------------x----3-------x----------x---------x---|
 
                     [Outro]
e|----------0----------------------------------------------------------------|
B|-2/3-3-3----3p1-1--3/5--------1/3---------------1------------1--3---3/5----|
G|-----------------------5-----------2--2/5--2p0--------0-0-2--------------5-|
D|------------------------------0--------------------------------------------|
A|-0-----------------3-------x----------x------0-----x---------x------3------|
E|----------3----------------x----------x------------x--3------x-------------|

e|---------------------------------------------------------------------------|
B|-----1/3---------------1----------1-3----------------------5-5h8-5---------|
G|----------2--2/5--2p0-------0-0-2---------0-----2-2/5-5/7-----------7p5----|
D|-----0------------------------------------------0--------------------------|
A|--x----------x------0----x--------x-----3----x-------------x-----0-------x-|
E|--x----------x-----------x--3-----x----------x-------------x-------------x-|

e|--------------0------------------------------------------------------------|
B|-2/3----------1---1-----1h3-----1--------1-----------1--3-3---1--1---------|
G|----------0-------------2---2-------2p0--2-----0-0-2-------------0---------|
D|--------------h2--------3----------------2-----------------------2---------|
A|------x-------3------x----------x-----0-----x--------x------3---(3)--------|
E|-2/3--x--------------x----------x-----------x--3-----x---------------------|

************************************

| x   Dead note
| (n) Ghost note
| h   Hammer-on
| p   Pull-off
| o   Wrist thump

************************************
Suggest correction
Give kudos to tab author, rate the tab!
1 2 3 4 5
comments
print report bad tab
guest
You may want to rate the tab now too:
select rating
Wanna post a correction for this tab? Suggest correction