Oops, an error
Loading. Please wait.

Geeks Chords

version 2
version 2

Whole song

  • Seems to use 9th chords for the funk feel. She doe... Show more
214 views 6 this week
no commentswrite comment
1 2 3 4 5
2 more votes to show rating
add to favorites
launch autoscroll
font size
0
reset
transpose
0
reset
simplify chords
display chords
guitar tuner
Autoscroll
slow
fast
+/-
esc
set tempo
stop
Help us to improve Ultimate-Guitar.com Take our survey!
×
Author
Difficulty
Tuning
Capo
intermediate
E A D G B E
5th fret
About this tab version
Seems to use 9th chords for the funk feel. She does capture the teenage angst in her songs. Similar feel to Lorde's "Royals". Please send me your inputs. Pax Vobiscum. Was this info helpful? Yes No
       G     B7    C7  Fmaj9 
e|-----x------x-----x----------------|
B|-----3------4-----5-----5------5---|
G|-----0------2-----3-----3h5p3--3---|
D|-----0------4-----5----------5-----|
A|-----2------2-----3----------------|
E|-----3------2-----3----------------|


[Intro]
G   B7   C7  Fmaj9
G   B7   C7


       G     B7     C7   Fmaj9     Bb7    A7  A7sus4
e|-----x------x-----x---------------x-----x-----x-----|
B|-----3------4-----5----5------5---3-----2-----3-----|
G|-----0------2-----3----3h5p3--3---1-----0-----0-----|
D|-----0------4-----5---------5-----3-----2-----2-----|
A|-----2------2-----3---------------1-----0-----0-----|
E|-----3------2-----3---------------1-----0-----0-----|

[Verse 1]
             G         B7      C7
Just take a look at us, Yeah
             G         B7      C7   Fmaj9
Aren’t we ridiculous?
G            B7    C7         C7 B7   Bb7   A7 A7sus4 A7
It’s safe to say   we’ve got no common sense, Yeah


[Verse 2]
             G         B7      C7
Just take a peek at us, Yeah
                  G         B7      C7  Fmaj9
The freaks on the mini-bus, Mmmmmmm
G             B7        Em                A7 A7sus4 A7
The geeks you like to throw    into the fence, Yeah


     Cmaj9   Em9  *
e|-----x------0---0-------|
B|-----3------0----0------|
G|-----4------0-----0-----|
D|-----2------4------4-2--|
A|-----3------2-----------|
E|-----x------0-----------|

[Pre-chorus]
     Cmaj9                         Em9   *                     
You know it really hurts and you love it
     Cmaj9                         Em9                        
You know it really hurts, we’ll rise above it
     Cmaj9 
You know it’s gonna hurt


       G     B7    Em   Cmaj7      G/F#   A7  A7sus4
e|-----x------x-----x-----x---------x-----0-----0-----|
B|-----3------0-----0-----0h1p0-----3-----2-----3-----|
G|-----0------2-----0-----0----0----0-----0-----0-----|
D|-----0------1-----2-----2---------0-----2-----2-----|
A|-----2------2-----2-----3---------0-----0-----0-----|
E|-----3------x-----0-----x---------2-----0-----0-----|

[Chorus]
   G          B7         Em              Cmaj7                         
Woah ooh oh oh, we know what we’re worth
   G          B7         Em              Cmaj7                         
And yooooou’ll get what you deserve
   G         G/F#     Em                 A7 A7sus4 A7
When aaaaaa-all the Geeks inherit the Earth

Yeah,  well
    G   B7     C7  Fmaj9 
    G   B7     C7


[Verse 3]
             G         B7      C7
Hey, aren’t we absurd? 
             G         B7      C7  Fmaj9
We’re just a bunch a nerds
G            B7   C7       C7 B7    Bb7       A7   A7sus4 A7
It's safe to say, you’re so much  cooler than that


[Verse 4]
              G         B7      C7
So, take your punch at us,  Yeah
                       G         B7      C7  Fmaj9
Go ahead and steal the lunch from us
G             G/F#       Em                  A7 A7sus4 A7
We’ll take the blow and play our part in the end


[Pre-chorus]
     Cmaj9                         Em9   *                     
You know it really hurts and you love it
     Cmaj9                     Em9                        
You know it really hurts, but you can't shove it
     Cmaj9 
Right where it really hurts


[Chorus]
   G          B7         Em              Cmaj7                         
Woah ooh ooh oh, we know what we’re worth
   G          B7         Em              Cmaj7                         
And yoooouuu’ll get what you deserve
   G        G/F#           Em           A7 A7sus4 A7
When aaaaaa-all the Geeks inherit the Earth


       G     B7     C   C#dim   F     D
e|-----x-----x--0---x-----x-----1-----2-----|
B|-----3-----0h3----1-----5-----1-----3-----|
G|-----0-----2------0-----0-----2-----2-----|
D|-----0-----1------2-----5-----3-----0-----|
A|-----2-----2------3-----4-----3-----0-----|
E|-----3-----x------x-----x-----1-----x-----|

[Bridge]
              G          B7
You toss your sticks and stones, 
               C          C#dim                        
and we’ll just lick our wounds
       G        B7
Beware the underdog, 
           C      C#dim                        
payback is coming soon
 C
Don’t blame the Universe 
G          B7         Em
when the karmas reverse
                 F
Just look at yourself… 

      D    
And Whoah—ooh


[Verse 5]
         G        B7      C7
Take a look at us,
             G                 B7    C7
And then you’ll know what’s up
 

[Chorus]
   G          B7         Em              Cmaj7                         
Woah ooh ooh oh, we know what we’re worth
   G          B7         Em              Cmaj7                        
And you-uuu’ll get what you deserve
   G          G/F#          Em          A7 A7sus4 A7
When aaaaaa-all the Geeks inherit the Earth

   G          B7         Em              Cmaj7                        
Oh, Woah ooh ooh oh, we know what we’re worth
   G          B7         Em              Cmaj7   Fmaj9                    
We’ll aaaa- all, go from worst to first
   G         G/F#     Em               A7 A7sus4 A7
When aaaaaa-all the Geeks inherit the Earth, 

[Outro]
Cmaj9       
Yeah

 
Suggest correction
Give kudos to tab author, rate the tab!
1 2 3 4 5
comments
print report bad tab
guest
You may want to rate the tab now too:
select rating
Wanna post a correction for this tab? Suggest correction