Oops, an error
Loading. Please wait.

Loopty Loop chords

163 views 3 this week
no commentswrite comment
1 2 3 4 5
3 more votes to show rating
add to favorites
×
Save as Personal and add changes to this tab that will be seen only by you. Learn more ›
×
You can save this tab as Personal to edit and correct it or add notes. All changes will be seen only by you. Learn more »
launch autoscroll
font size
0
reset
transpose
0
reset
simplify chords
display chords
guitar tuner
edit
Autoscroll
slow
fast
+/-
esc
set tempo
stop
Author
Difficulty
About this tab version
Based off the "A Little Awkward" EP. Was this info helpful? Yes No
Strumming
There is no strumming pattern for this song yet. and get +5 IQ
These are the chords used. In the verses, the bass note is
plucked first followed by the upper three notes played twice

        E  A  D  G  B  e
Am7:    5  x  5  5  5  x
C/G:    3  x  5  5  5  x
F#m7-5: 2  3  2  2 (1) x 
F:      1  3  3  2  x  x
E:      x  2  2  1  x  x
Dm:     x  5  7  7  6  x
Am:     x  7  9  9  8  x
N.C.:   No Chord



[Intro]
Am7 C/G F#m7-5 F E

[Verse 1]
Am7            C/G
Alright, we're hanging in your car
F#m7-5
Pound another rockstar
F               F   E
Will we take it too far?
Am7      C/G
Oh yeah, feels kinda Noir
F#m7-5
Turn up the [?] and
F             F    E
Hang onto the roll bar
Am7       C/G
So close, close but no cigar
F#m7-5 
I can feel the spark

[Pre-Chorus]
N.C
Inside I'm playing hopscotch

e|--------------------|
B|---------8h10p8-----|
G|--------------------|
D|--------------------|
A|--------------------|
E|--------------------|

In flip flops

N.C
Heart is like a stopwatch

e|--------------------|
B|---------8h10p8-----|
G|--------------------|
D|--------------------|
A|--------------------|
E|--------------------|

Going tick-tock

           Dm                    (Am7)
e|----------------------------------|
B|---------------6------------------|
G|-------------7--------------------|
D|-----------7----------------------|
A|---------5-------7-----5-7---5----|
E|---------------------------8---5--|

Am I just a knock-knock joke to you?
 
[Chorus]
Am7 C/G     F#m7-5         F       E
I-I've been jumping though flaming hoops
Am7                    C/G            
Shoots and ladders and loopty loop
        F#m7-5 
Oh, I'm feeling you
           F      E
That's the stupid truth
Am7 C/G     F#m7-5         F       E
I-I've been jumping though flaming hoops
Am7                    C/G            
Shoots and ladders and loopty loop
        F#m7-5 
Oh, I'm feeling you
           F      E
That's the stupid truth


Am7 C/G F#m7-5 F E

[Verse 2]
Am7       C/G
Backseat, driving in the dark
F#m7-5
Show's about to start
      F                   E
Yeah, raiders of the lost ark
Am7            C/G
Oh yeah, we're gonna paint the park
F#m7-5                   F           E 
We're a work of art like Basquiat or Mozart
Am7       C/G
So close, can we touch the stars?

F#m7-5
e|----------------------|
B|---------1------------|
G|-------2-----2---2--2-|
D|-----2-----2---2---2--|
A|---3------------------|
E|-2--------------------|

Does he hear my heart?

[Pre-Chorus]

N.C
Inside I'm playing hopscotch

e|--------------------|
B|---------8h10p8-----|
G|--------------------|
D|--------------------|
A|--------------------|
E|--------------------|

In flip flops

N.C
Heart is like a stopwatch

e|--------------------|
B|---------8h10p8-----|
G|--------------------|
D|--------------------|
A|--------------------|
E|--------------------|

Going tick-tock

           Dm                    (Am7)
e|----------------------------------|
B|---------------6------------------|
G|-------------7--------------------|
D|-----------7----------------------|
A|---------5-------7-----5-7---5----|
E|---------------------------8---5--|

Am I just a knock-knock joke to you?


[Chorus]
Am7 C/G     F#m7-5         F       E
I-I've been jumping though flaming hoops
Am7                    C/G            
Shoots and ladders and loopty loop
        F#m7-5 
Oh, I'm feeling you
           F      E
That's the stupid truth
Am7 C/G     F#m7-5         F       E
I-I've been jumping though flaming hoops
Am7                    C/G            
Shoots and ladders and loopty loop
        F#m7-5 
Oh, I'm feeling you
           F      E
That's the stupid truth


[Bridge]
Am7        C/G
Automatic, photostatic
F#m7-5          F         E
Ultra panic, so dramatic
Am7        C/G
Automatic, photostatic
F#m7-5          F         E
Ultra panic, so dramatic


[Pre-Chorus]

Inside I'm playing
   
    Dm     Am
e|-------------------------|
B|--------6-------8--8h10p8|
G|------7-------9----------|
D|----7-------9------------|
A|--5-------7--------------|
E|-------------------------|

Hopscotch in flip flops

Heart is like a 

    Dm     Am
e|-------------------------|
B|--------6-------8--8h10p8|
G|------7-------9----------|
D|----7-------9------------|
A|--5-------7--------------|
E|-------------------------|

Stopwatch going tick-tock

           Dm                    (Am7)
e|----------------------------------|
B|---------------6------------------|
G|-------------7--------------------|
D|-----------7----------------------|
A|---------5-------7-----5-7---5----|
E|---------------------------8---5--|

Am I just a knock-knock joke to you?


[Chorus]
Am7 C/G     F#m7-5         F       E
I-I've been jumping though flaming hoops
Am7                    C/G            
Shoots and ladders and loopty loop
        F#m7-5 
Oh, I'm feeling you
           F      E
That's the stupid truth
Am7 C/G     F#m7-5         F       E
I-I've been jumping though flaming hoops
Am7                    C/G            
Shoots and ladders and loopty loop
        F#m7-5 
Oh, I'm feeling you
           F      E
That's the stupid truth

[Outro]
Am7 C/G F#m7-5 F E
Am7 C/G F#m7-5 E

            
            
Suggest correction
Creating personal tab
Creating personal tab
You can edit any tab online and save it as your Personal.

You can edit, replace or remove any tab part or add personal notes – all changes will be seen only by you.

Personal tabs can be accessed anytime from any device, even offline.
Learn more »
Give kudos to tab author, rate the tab!
1 2 3 4 5
comments
print report bad tab
guest
You may want to rate the tab now too:
select rating
Wanna post a correction for this tab? Suggest correction