Oops, an error
Loading. Please wait.

Dont Save Me bass

version 2
version 2

Whole song

by HAIM
6,812 views 33 this week
no commentswrite comment
1 2 3 4 5
x 10
add to favorites
×
Save as Personal and add changes to this tab that will be seen only by you. Learn more ›
×
You can save this tab as Personal to edit and correct it or add notes. All changes will be seen only by you. Learn more »
launch autoscroll
font size
0
reset
guitar tuner
edit
Autoscroll
slow
fast
+/-
esc
set tempo
stop
Author
Difficulty
Tabbed by: Marla
Twitter: @GetOutOfCapeCod
YouTube: .com/user/popularkid1234

Tuning: Standard EADG

Hey! This is my fifth tab now. This is a tab for Don't Save Me by HAIM (obviously) 
but I tabbed it the way Este plays it live as apposed to the way it sounds on the original track. 

I hope you enjoy playing this as much as I did on my bass cover video :D


Verses 1, 2 and 3

G|-------7----7-----7---7-------------------------------|
D|-----55-5--5-5---5---5-5----------5----5-----5---5----| x3 (as in once for
A|5--7------------5----------5--7-33-3--3-3---3---3-3---|     each verse)
E|-------------------------------------------3----------|

At the end of the third verse you do a little thing like this:

G|------------------------------------------------------|
D|-5-55-------------------------------------------------|
A|3-3--30-----------------------------------------------|
E|------------------------------------------------------|

Pre-Chorus "Take me back//Give it up give it up"

G|------------------------------------------------------|
D|--------------22-222----------------------------------| x2
A|22-222-3-33335-------5-55550--------------------------| 
E|------------------------------------------------------|

Chorus

G|------------------44----------------------------------|
D|---44----5-550122----2--77-7--------------------------| x2
A|22----2-3-3------------5--5-50------------------------|
E|------------------------------------------------------|

Verse 4 "All my life I wasn't trying to get on a highway"

G|------------------------------------------------------|
D|----5-------------------------------------------------|
A|5-7--------------5-7-3--------------------------------|
E|------------------------------------------------------|

Verses 5 and 6

G|-------7----7-----7---7-------------------------------|
D|-----55-5--5-5---5---5-5----------5----5-----5---5----| x2 (as in once for
A|5--7------------5----------5--7-33-3--3-3---3---3-3---|     each verse)
E|-------------------------------------------3----------|

And then you do the thing again

G|------------------------------------------------------|
D|-5-55-------------------------------------------------|
A|3-3--30-----------------------------------------------|
E|------------------------------------------------------|

Pre-Chorus again

G|------------------------------------------------------|
D|--------------22-222----------------------------------| x2
A|22-222-3-33335-------5-55550--------------------------| 
E|------------------------------------------------------|

Chorus

G|------------------44----------------------------------|
D|---44----5-550122----2--77-7--------------------------| x2
A|22----2-3-3------------5--5-50------------------------|
E|------------------------------------------------------|

Bridge "And if I had to beg for your love"

G|------------------------------------------------------|
D|---------------9-99-9---------------------------------| x3
A|3-------------7-7--7-0--------------------------------|
E|------------------------------------------------------|

But on the last one you go

G|------------------------------------------------------|
D|------------------------------------------------------|
A|3--------------3333333--------------------------------|
E|------------------------------------------------------|

Break "Baby, don't save me//No baby, don't save me"

Chorus again

G|------------------44----------------------------------|
D|---44----5-550122----2--77-7--------------------------| x4
A|22----2-3-3------------5--5-50------------------------|
E|------------------------------------------------------|

G|------------------------------------------------------|
D|----------------22222222------------------------------|
A|2222222233333335--------55555550----------------------|
E|------------------------------------------------------|

G|------------------------------------------------------|
D|----------------22222222-------25---------------------|
A|2222222233333335--------5555555-----------------------|
E|------------------------------------------------------|
Suggest correction
Creating personal tab
Creating personal tab
You can edit any tab online and save it as your Personal.

You can edit, replace or remove any tab part or add personal notes – all changes will be seen only by you.

Personal tabs can be accessed anytime from any device, even offline.
Learn more »
comments
print report bad tab
guest
You may want to rate the tab now too:
select rating
Wanna post a correction for this tab? Suggest correction