Oops, an error
Loading. Please wait.

Forever bass

version 1
version 1

Whole song

Interactive

by HAIM
13,480 views 9 this week
2 commentsread comments
1 2 3 4 5
x 6
add to favorites
×
Save as Personal and add changes to this tab that will be seen only by you. Learn more ›
×
You can save this tab as Personal to edit and correct it or add notes. All changes will be seen only by you. Learn more »
launch autoscroll
font size
0
reset
guitar tuner
edit
Autoscroll
slow
fast
+/-
esc
set tempo
stop
Author
Difficulty
-------------------------------------------------------------------------------
                             Forever - Haim
-------------------------------------------------------------------------------


Tabbed by: Poppy
Email: poppy.powers@me.com // Twitter: @poppy_powers

Tuning: Standard

BASS FACE: Optional

Disclaimer: It's 2am, and this is my second tab ever. Apologies if it's rubbish, feel 
free to let me know what's wrong with it/correct it. This corresponds to the recorded 
version of 'Forever', not a live version.

Haim are bloody brilliant, and Este's bass lines are awesome. So, enjoy! (and sorry if it's bad!)

Intro

G|----------------------------------------------|
D|----------------------------------------------|
A|---33-----5---353-------33-----5---353--------|
E|-1----1/3---3-----3---1----1/3---3-----3------|

G|----------------------------------------------|
D|-----------------------7--7-------------------|
A|---33-----5---353----------7\3--353-----------|
E |-1----1/3---3-----3/5---5------3----3--------|

Verse 1
"Hey you! Remember me?..."

G|-----------------------------------------------------------------------|
D|-----------------------------------------------------------------------|
A|-----------------------3--3-3------------------------3--3-3------------|    (x2)
E |-1--1-1-3--3-3-5--5-5---------1--1-1-3--3-3-5--5-5--------------------|

Pre-chorus
"Hey you! Hey you! Can't you..."

G|-------------------------------------------------|
D|-------------------------------------------------|
A|-------------------------------------------------|  (x2)
E |-1--1-1-1-3--3-3-3-0--0-0-0-1--1-1-1------------|

Chorus
"Forever we tried to make it right..."

G|----------------------------------------------|
D|-----------------------7--7-------------------|
A|---33-----5---353----------7\3---2-2-3-2-0----|
E |-1----1/3---3-----3/5---5------3-------------|

G|----------------------------------------------|
D|-----------------------7--7-------------------|
A|---33-----5---353----------7\3---2-2-3-2-0----|
E |-1----1/3---3-----3/5---5------3-------------|

Verse 2
"I don't want to turn around..."

G|---------------------------------------------------------------------|
D|---------------------------------------------------------------------|
A|-----------------------3--3-3------------------------3--3-3----------|
E |-1--1-1-3--3-3-5--5-5---------1--1-1-3--3-3-5--5-5------------------|

Pre-chorus
"Hey you! Hey you! Can't you..."

G|-------------------------------------------------|
D|-------------------------------------------------|
A|-------------------------------------------------|  (x2)
E |-1--1-1-1-3--3-3-3-0--0-0-0-1--1-1-1------------|

Chorus
"Forever we tried to make it right..."

G|----------------------------------------------|
D|-----------------------7--7-------------------|
A|---33-----5---353----------7\3---2-2-3-2-0----|
E |-1----1/3---3-----3/5---5------3-------------|

G|----------------------------------------------|
D|-----------------------7--7-------------------|
A|---33-----5---353----------7\3---2-2-3-2-0----|
E |-1----1/3---3-----3/5---5------3-------------|


Guitar Solo

G|----------------------------------------------|
D|-----------------------7--7-------------------|
A|---33-----5---353----------7\3---2-2-3-2-0----|
E |-1----1/3---3-----3/5---5------3-------------|

G|----------------------------------------------|
D|-----------------------7--7-------------------|
A|---33-----5---353----------7\3---2-2-3-2-0----|
E |-1----1/3---3-----3/5---5------3-------------|

Bridge
(no bass)

Pre-chorus
(no bass)

Chorus until the end

G|----------------------------------------------|
D|-----------------------7--7-------------------|
A|---33-----5---353----------7\3---2-2-3-2-0----|
E |-1----1/3---3-----3/5---5------3-------------|

G|----------------------------------------------|
D|-----------------------7--7-------------------|
A|---33-----5---353----------7\3---2-2-3-2-0----|
E |-1----1/3---3-----3/5---5------3-------------|


FIN!

*Looking at some of the live videos, this end part may actually be played further up and 
on the D string, so have a play around with it.



| /  slide up
| \  slide down
| h  hammer-on
| p  pull-off
| ~  vibrato
| +  harmonic
| x  Mute note
===============================================================================

            
            
Suggest correction
Creating personal tab
Creating personal tab
You can edit any tab online and save it as your Personal.

You can edit, replace or remove any tab part or add personal notes – all changes will be seen only by you.

Personal tabs can be accessed anytime from any device, even offline.
Learn more »
comments
print report bad tab
2 comments total.
-1 reply
annagorse 10 Sep 22, 2013 07:55 AM

"BASS FACE: Optional" hahahahahahahaha love it!

0 reply
landoweeks 16 Jan 06, 2014 08:24 AM

Good tab, but when you go up in the chorus, I'm pretty sure it's the same as in the verse, like this:
G|----------------------------------------------|
D|-----------------------7--7-------------------|
A|---33-----5---353----------7\3--353-----------|
E|-1----1/3---3-----3/5---5------3----3---------|

What you did with fret 2 and 3 on the A string sounds good, but doesn't really suit the song I think. I'm not sure, it's just my feeling.

guest
You may want to rate the tab now too:
select rating
Wanna post a correction for this tab? Suggest correction