Oops, an error
Loading. Please wait.

If I Could Change Your Mind Bass Tab

by Haim
3,934 views 3 this week
1 commentread comment
1 2 3 4 5
x 4
add to favorites
launch autoscroll
font size
0
reset
guitar tuner
Autoscroll
slow
fast
+/-
esc
set tempo
stop
Help us to improve Ultimate-Guitar.com Take our survey!
×
Author
Intro:
Guitar: C5 - Ab5 -Bb5  - Ab5


Bass
Verse:                           
G|---------------------------|        ]  Repeats
D|------10101010----101010---|        ]
A|---------------------------|        ]
E|--88888-------888----------|        ]
                                      ]
G|---------------------------|        ]
D|--------6666----666--------|        ]
A|---------------------------|        ]
E|--44444------444-----------|        ]
                                      ]
G|---------------------------|        ] 
D|--------8888------888------|        ]
A|---------------------------|        ]
E|--66666-------666----------|        ]
                                      ]
G|---------------------------|        ]
D|--------6666----666--------|        ]
A|---------------------------|        ]
E|--44444------444-----------|        ]


But if I was to say...

G|-----10-------10---8-----| 
D|-------------------------|
A|---8-----6-8-----6---6---|
E|-------------------------|

G|---------------------------| 
D|----10-----10---8----------|
A|---------------------------|
E|--8----6-8----6--6---------|

G|-----10-------10---8------| 
D|--------------------------|
A|---8-----6-8-----6---6----|
E|------------------------8-|



Chorus
Slide

G|-------------------------------------------| 
D|------8----------------------6-------------|
A|-------------------------------------------|
E|---6----4-6-6----88888----4----2-4-4-88888-|


G|-----------------------------------------------| 
D|-----6------------------6----------------------|
A|-----------------------------------------------|
E|---4--2-4-4--88888---4----2-4-4---44444--88888-|



Bridge(No singing/clapping):

G|-------------------------| repeats
D|-------10101010---101010-|
A|-------------------------|
E|--88888--------888-------|

Strum 0 sliding 4 times

Danielle sings:

G|-------------------------| repeats
D|-------10101010---101010-|
A|-------------------------|
E|--88888--------888-------|


Chorus : Repeats until the end of the song

Slide

G|-------------------------------------------| 
D|------8----------------------6-------------|
A|-------------------------------------------|
E|---6----4-6-6----88888----4----2-4-4-88888-|


G|-----------------------------------------------| 
D|-----6------------------6----------------------|
A|-----------------------------------------------|
E|---4--2-4-4--88888---4----2-4-4---44444--88888-|

Suggest correction
comments
print report bad tab
1 comment total.
+1 reply
nuliajorris1 85 Apr 29, 2014 02:03 PM

the whole tab is two frets off, like every time you wrote a 4, it's actually a 6 etc. Also in the chorus it's the same line repeated, not two different ones (except the last bar).

guest
You may want to rate the tab now too:
select rating
Wanna post a correction for this tab? Suggest correction