Oops, an error
Loading. Please wait.

If I Could Change Your Mind Live tab

version 2
version 2

Whole song

by HAIM
331 views 1 this week
no commentswrite comment
1 2 3 4 5
3 more votes to show rating
add to favorites
×
Save as Personal and add changes to this tab that will be seen only by you. Learn more ›
×
You can save this tab as Personal to edit and correct it or add notes. All changes will be seen only by you. Learn more »
launch autoscroll
font size
0
reset
how to read this tab
guitar tuner
edit
Autoscroll
slow
fast
+/-
esc
set tempo
stop
Author
Difficulty
-------------------------------------------------------------------------------
                             If I Could Change Your Mind Live - HAIM
-------------------------------------------------------------------------------
Tabbed by: elise

Tuning: Standard

These are the tabs of the Live version of If I Could Change Your Mind? performed at Glastonbury :
https://www.youtube.com/watch?v=JJCkeEhmkSY (5;57)


Danielle :

Intro :

e|----8--------6--------4--------6---------4--------------------------------|
B|----8--------6--------4--------6---------4--------------------------------|
G|----9--------7--------5--------6---------5--------------------------------|
D|----10-------8--------6--------8---------6--------------------------------|
A|----10-------8--------6--------8---------6--------------------------------|
E|----8--------6--------4--------6---------4--------------------------------|

Verse 1 : 

e|---------------------------------------------------------------------------|
B|---------------------------------------------------------------------------|
G|---------------------------------------------------------------------------| 
D|--------10101010-----101010--------8888------888---------6666-----666------|
A|---------------------------------------------------------------------------|
E|--888888---------8888--------666666-------6666------444444-----4444--------|

e|---------------------------------------------------------------------------|
B|---------------------------------------------------------------------------|
G|---------------------------------------------------------------------------|
D|-----------8888------888---------------------------------------------------|
A|---------------------------------------------------------------------------|
E|-----666666------6666------------------------------------------------------|

Pre-chorus : I think she plays this until the chorus

e|----8-------6----------------------------------------------------------------|
B|----8-------6----------------------------------------------------------------|
G|----9-------7----------------------------------------------------------------|
D|----10------8----------------------------------------------------------------|
A|----10------8----------------------------------------------------------------|
E|----8-------6----------------------------------------------------------------|

Chorus : She just strum the strings once :

e|----6-------8-------4-------8------------------------------------------------|
B|----6-------8-------4-------8------------------------------------------------|
G|----7-------9-------5-------9------------------------------------------------|
D|----8-------10------6-------10-----------------------------------------------|
A|----8-------10------6-------10-----------------------------------------------|
E|----6-------8-------4-------8------------------------------------------------|

2nd verse : she doesn't play anything 

Pre-chorus : same as before

Chorus : same as before 

Danielle plays a solo check out the solo tab on the site wich is perfect :
(http://tabs.ultimate-guitar.com/h/haim/if_i_could_change_your_mind_solo_tab.htm)


Alana : She only plays during the chorus

Check the video to listen to the rythm she plays

e|-----6-------8-------4------8--------------------------------------------------|
B|-----6-------8-------4------8--------------------------------------------------|
G|-----7-------9-------5------9--------------------------------------------------|
D|-----8-------10------6------10-------------------------------------------------|
A|-----x-------x-------x------x--------------------------------------------------|
E|-----x-------x-------x------x--------------------------------------------------|


            
            
Suggest correction
Creating personal tab
Creating personal tab
You can edit any tab online and save it as your Personal.

You can edit, replace or remove any tab part or add personal notes – all changes will be seen only by you.

Personal tabs can be accessed anytime from any device, even offline.
Learn more »
Give kudos to tab author, rate the tab!
1 2 3 4 5
comments
print report bad tab
guest
You may want to rate the tab now too:
select rating
Wanna post a correction for this tab? Suggest correction