Oops, an error
Loading. Please wait.

Little Of Your Love tab

by HAIM
1,000 views 72 this week
no commentswrite comment
1 2 3 4 5
1 last vote to show rating
add to favorites
×
Save as Personal and add changes to this tab that will be seen only by you. Learn more ›
×
You can save this tab as Personal to edit and correct it or add notes. All changes will be seen only by you. Learn more »
launch autoscroll
font size
0
reset
how to read this tab
guitar tuner
edit
Autoscroll
slow
fast
+/-
esc
set tempo
stop
[Verse]
You're just another recovering heart

(Danielle's part)
E|--------------------| 
B|--------------------|
G|--------------------|
D|--------------------|
A|--------------------|
E|-0-0-0-0------------|

(Alana's part)
E|--------------------| 
B|--------------------|
G|------9----9-11-----|
D|-9h11---11----------|
A|--------------------|
E|--------------------|

I wasn't even gonna try
You wouldn't even give up time
Could be so easy, you make it hard

(Danielle's part)
E|--------------------| 
B|--------------------|
G|--------------------|
D|--------------------|
A|------4-------------|
E|-2-2----5--0-0-0-0--|

(Alana's part)
E|-------------------| 
B|-------------------|
G|---------11--------|
D|-9h11-9----11------|
A|-------------------|
E|-------------------|

Don't think about love too much
My love is gonna be enough

(Danielle's part)
E|------------| 
B|------------|
G|------------|
D|------------|
A|------4-4---|
E|-2-2--------|

[Pre-chorus]
(Alana's part)
E|---/9--------------| 
B|-------------------|
G|-------------------|
D|-------------------|
A|-------------------|
E|-------------------|

(Danielle's part)
E|--------------------| 
B|--------------------|
G|--------------------|
D|--------------------|
A|-7--4--7--4--2------|
E|-5--2--5--2--0------|

You're so close now
And I know now

[Chorus]
You gotta give me just a little of your love, baby

(Danielle's part)
   E5   A5
E|-x----x---| 
B|-9----10--|
G|-9----9---|
D|-9----7---|
A|-7----x---|
E|-x----x---|(3x) or just  

 E5   A5
E|-x----x---| 
B|-9----10--|
G|-9----9---|
D|-9----x---|
A|-x----x---|
E|-x----x---|

(Danielle's part)
E|-x---------------------| 
B|-9---------------------|
G|-9---------------------|
D|-9---------------------|
A|-7--9-9/11-11-9-7------|
E|-x---------------------|


(Alana's part)
E|---16--------------------------| 
B|---17--------------------------|
G|-----------------9------9------|
D|------------9h11---9h11---9h11-|
A|-------------------------------|
E|-------------------------------| (3x)

E|---16--------------------------| 
B|---17--------------------------|
G|-------------------------------|
D|-------------------------------|
A|------------9-9/11-11-9-7------|
E|-------------------------------|
And I'll try
You gotta give me just a little of your love, baby
And I'll try
You gotta give me just a little of your love, baby
And I'll try
You gotta give me just a little of you love
Give me just a little of your love

[Bridge]

Oh with a little strength baby
Oh, I'll never let you down
With a little love, a little love, a little love, a little love

(Danielle's part)
E|--------------------| 
B|--------------------|
G|--------------------|
D|--------------------|
A|--------------------|
E|4--5-7--9--4--5--7-7|

[Solo]
(Danielle's part)
E|---12----12--12----12------12-------12------0-| 
B|--(15)--(15)---(15)---(15)----(15)-----(15)---|
G|----------------------------------------------|
D|----------------------------------------------|
A|----------------------------------------------|
E|----------------------------------------------|

E|--12-9------------------------------------------------| 
B|-------12-9-------------------------------------------|
G|-------------11-9-------9-9-(11)-(11)-(11)-(11)-------|
D|------------------11-9--------------------------------|
A|------------------------------------------------------|
E|------------------------------------------------------| 

E|--------------------------------------------------------12-(14)-12-|
B|------------------------------------12-(14)-12-12-12h14------------|
G|-(11)----9-11-(11)----9-------11h13--------------------------------|
D|------11-----------11---11-----------------------------------------|
A|-------------------------------------------------------------------|
E|-------------------------------------------------------------------|

E|--12-12-12-12-12------------------------------------0-| 
B|--12h14-12h14-12--------------------------------------|
G|------------------11h13-11h13-11---------9-----9------|
D|----------------------------------9-9h11--9h11--------|
A|------------------------------------------------------|
E|------------------------------------------------------|

E|--0---12-9-7--4---0-0h2h0------0h2h0-------0h2h0-2----0---| 
B|--------------------------1/2--------1/2----------2h0-----|
G|----------------------------------------------------------|
D|----------------------------------------------------------|
A|----------------------------------------------------------|
E|----------------------------------------------------------| (4x)


************************************

| (n)  Bend 
| x    Dead note
| /    Slide
| h  Hammer-on

************************************

            
            
Suggest correction
Creating personal tab
Creating personal tab
You can edit any tab online and save it as your Personal.

You can edit, replace or remove any tab part or add personal notes – all changes will be seen only by you.

Personal tabs can be accessed anytime from any device, even offline.
Learn more »
Give kudos to tab author, rate the tab!
1 2 3 4 5
comments
print report bad tab
guest
You may want to rate the tab now too:
select rating
Wanna post a correction for this tab? Suggest correction