Oops, an error
Loading. Please wait.

My Song 5 Tab

version 1
version 1

Whole song

19,779 views 21 this week
no commentswrite comment
1 2 3 4 5
x 19
add to favorites
launch autoscroll
font size
0
reset
how to read this tab
guitar tuner
×
Best way to learn
"My Song 5"
Autoscroll
slow
fast
+/-
esc
set tempo
stop
Author
Difficulty
-------------------------------------------------------------------------------
                             MY SONG 5 - Haim
-------------------------------------------------------------------------------
Tabbed by: Lauren Marquez
E-mail: lauren.marquez4@gmail.com

Tuning: Standard

Guitar doesn't come in until after the chorus but this is cool to play along with.

Synth(?) under the chorus (follows the melody):
e|--------------------------------------------------------------|
B|--------------------------------------------------------------|
G|--------------------------------------------------------------|
D|--------------------------------------------------------------|
A|---2-2-2--0-0-0--0---0-2-0---------------------0---0-2-0------|
E|-0-----------------3-------3--0--0-0-0--3-3-3----3-------3-0--|

e|---------------------------------|
B|---------------------------------|
G|---------------------------------|
D|-------------------------------2-|
A|-2-2-2--0-0-0--0---0-2-0-------2-|
E|-----------------3-------3--0--0-|


. . ."Honey I'm not your honey pie". . .

e|----------------------------------------------------------|
B|----------------------------------------------------------|
G|----------------------------------------------------------| x4
D|----------------------------------------------------------|
A|----------------------------------------------------------|
E|--/12-12-12-12-12--/10-10-10-10--0-3/5-5-5-5-3-0-5-3-0-0--|


BRIDGE CHORDS:
G          Am
If you want to see me baby please
                                                G
Been holding on for eternity, say you only want me
        Em
Missing you never led to much of anything
                                     G
If you wanna know, if you wanna show me
              Am
What it means, what it seemed, seemed to be

Held by a thread, tried to forget
         G              Em
But I'll never let it go

Honey I'm not your honey pie


(Then repeat the riff until the end of the song when there's one more chorus.)
Suggest correction
comments
print report bad tab
guest
You may want to rate the tab now too:
select rating
Wanna post a correction for this tab? Suggest correction