Oops, an error
Loading. Please wait.

Nothings Wrong tab

by HAIM
289 views 27 this week
no commentswrite comment
1 2 3 4 5
3 more votes to show rating
add to favorites
×
Save as Personal and add changes to this tab that will be seen only by you. Learn more ›
×
You can save this tab as Personal to edit and correct it or add notes. All changes will be seen only by you. Learn more »
launch autoscroll
font size
0
reset
how to read this tab
guitar tuner
edit
Autoscroll
slow
fast
+/-
esc
set tempo
stop
About this tab version
Based on the album recording. The 2nd guitar could play chords under all sections of the song, but I only added those parts in the bridge and last chorus since there's already a good chord sheet for this song. Was this info helpful? Yes No
[Verse]
(Gtr 1)
e|----------------|----------------|----------------|----------------|
B|----------6-----|6---6-----------|------------5-5-|----------------|
G|----------5-----|5h7-5---5-----5-|------------5-5-|----------------|
D|--------------7-|--------5h7p5-5-|----8p5-----5-5-|----8p5---------| (x3)
A|----------------|----------------|----------------|----------------|
E|----------------|----------------|----------------|----------------|

e|----------------|----------------|----------------|----------------|
B|----------6-----|6---6-----------|---------------5|------------5-6-|
G|----------5-----|5h7-5---5-------|---------------5|------------5-5-|
D|--------------7-|--------7p5-8-8-|----5-------5h7-|----7-----------|
A|----------------|----------------|----------------|----------------|
E|----------------|----------------|----------------|----------------|

[Chorus]
(Gtr 1)
e|----------------|----------------|----------------|----------------|
B|----------6-----|6---6-----------|------------5-5-|----------------|
G|----------5-----|5h7-5---5-----5-|------------5-5-|----------------|
D|--------------7-|--------5h7p5-5-|----8p5-----5-5-|----8p5---------|
A|----------------|----------------|----------------|----------------|
E|----------------|----------------|----------------|----------------|

                                                     **
e|----------------|----------------|----------------|----------------|
B|----------6-----|6---6-----------|---------------5|------------5-6-|
G|----------5-----|5h7-5---5---5-5-|---------------5|------------5-5-|
D|--------------7-|--------7p5-5-5-|------------5h7-|----7-----------|
A|----------------|----------------|----8-----------|----------------|
E|----------------|----------------|----------------|----------------|

e|----------------|----------------|----------------|----------------|
B|----------6-----|5---5---5---5-6-|----------6-----|5---5---5-5-5-6-|
G|----------7-----|5---5---5---5-7-|----------7-----|5---5---5-5-5-7-|
D|----------------|----------------|----------------|----------------|
A|----------------|----------------|----------------|----------------|
E|----------------|----------------|----------------|----------------|

e|----------------|----------------|----------------|----------------|
B|----------6-----|5---5---5---5-6-|----------------|----------------|
G|----------7-----|5---5---5---5-7-|--------5-------|----------------|
D|----------------|----------------|--------7-------|------7-5-------|
A|----------------|----------------|----------------|------------8---|
E|----------------|----------------|----------------|----------------|

(Guitar 2 plays here)
e|----------------|
B|----------------|
G|--0h2---0h2p0---|
D|------3-------3-|
A|----------------|
E|----------------|

[Verse]
(Gtr 1)
e|----------------|
B|----------------|
G|-----(REST)-----|
D|----------------| (x8)
A|----------------|
E|----------------|

e|----------------|----------------|----------------|----------------|
B|----------6-----|6---6-----------|------------5-5-|----------------|
G|----------5-----|5h7-5---5-----5-|------------5-5-|----------------|
D|--------------7-|--------5h7p5-5-|----8p5-----5-5-|----8p5---------|
A|----------------|----------------|----------------|----------------|
E|----------------|----------------|----------------|----------------|

e|----------------|----------------|----------------|----------------|
B|----------6-----|6---6-----------|---------------5|------------5-6-|
G|----------5-----|5h7-5---5-------|---------------5|------------5-5-|
D|--------------7-|--------7p5-8-8-|----5-------5h7-|----7-----------|
A|----------------|----------------|----------------|----------------|
E|----------------|----------------|----------------|----------------|

(Guitar 2)
e|----------------|----------------|
B|----------------|----------------|
G|--7-----7-----7-|--7-----7-----5-|
D|----------------|----------------| (x4)
A|----------------|----------------|
E|----------------|----------------|

[Chorus]
(Gtr 1)
e|----------------|----------------|----------------|----------------|
B|----------6-----|6---6-----------|------------5-5-|----------------|
G|----------5-----|5h7-5---5-----5-|------------5-5-|----------------|
D|--------------7-|--------5h7p5-5-|----8p5-----5-5-|----8p5---------|
A|----------------|----------------|----------------|----------------|
E|----------------|----------------|----------------|----------------|

                                                     **
e|----------------|----------------|----------------|----------------|
B|----------6-----|6---6-----------|---------------5|------------5-6-|
G|----------5-----|5h7-5---5---5-5-|---------------5|------------5-5-|
D|--------------7-|--------7p5-5-5-|------------5h7-|----7-----------|
A|----------------|----------------|----8-----------|----------------|
E|----------------|----------------|----------------|----------------|

e|----------------|----------------|----------------|----------------|
B|----------6-----|5---5---5---5-6-|----------6-----|5---5---5-5-5-6-|
G|----------7-----|5---5---5---5-7-|----------7-----|5---5---5-5-5-7-|
D|----------------|----------------|----------------|----------------|
A|----------------|----------------|----------------|----------------|
E|----------------|----------------|----------------|----------------|

e|----------------|----------------|----------------|----------------|
B|----------6-----|5---5---5---5-6-|----------------|----------------|
G|----------7-----|5---5---5---5-7-|--------5-------|----------------|
D|----------------|----------------|--------7-------|----------------|
A|----------------|----------------|----------------|----------------|
E|----------------|----------------|----------------|----------------|

(Guitar 2 plays here)
e|----------------|
B|----------------|
G|--0h2---0h2p0---|
D|------3-------3-|
A|----------------|
E|----------------|

[Bridge]
(Gtr 1)
e|----------------|
B|----------------|
G|-----(REST)-----|
D|----------------| (x16)
A|----------------|
E|----------------|

(Next, on the recording there’s still no guitar until the chorus, but live the guitars play)
e|----------------|----------------|
B|----------------|----------------|
G|3-------5-------|7---------------|
D|3-------5-------|7---------------|
A|1-------3-------|5---------------|
E|----------------|----------------|

“Tell me nothing’s wrong...”
e|----------------|----------------|----------------|----------------|
B|----------------|----------------|----------------|----------------|
G|3-3-3-3-5-5-5-5-|7-7-7-7-7-7-7-7-|----------------|3-3-3-3-3-3-3-3-|
D|3-3-3-3-5-5-5-5-|7-7-7-7-7-7-7-7-|3-3-3-3-3-3-3-3-|3-3-3-3-3-3-3-3-|
A|1-1-1-1-3-3-3-3-|5-5-5-5-5-5-5-5-|3-3-3-3-3-3-3-3-|1-1-1-1-1-1-1-1-|
E|----------------|----------------|1-1-1-1-1-1-1-1-|----------------|

e|----------------|----------------|----------------|----------------|
B|----------------|----------------|----------------|----------------|
G|3-3-3-3-5-5-5-5-|7-7-7-7-7-7-7-7-|5-5-5-5-5-5-5-5-|5-5-5-5-5-5-5-5-|
D|3-3-3-3-5-5-5-5-|7-7-7-7-7-7-7-7-|5-5-5-5-5-5-5-5-|5-5-5-5-5-5-5-5-|
A|1-1-1-1-3-3-3-3-|5-5-5-5-5-5-5-5-|3-3-3-3-3-3-3-3-|3-3-3-3-3-3-3-3-|
E|----------------|----------------|----------------|----------------|

[Chorus + Solo]
(Gtr 1)
e|----------------|----------------|----------------|----------------|
B|----------6-----|6---6-----------|------------5-5-|----------------|
G|----------5-----|5h7-5---5-----5-|------------5-5-|----------------|
D|--------------7-|--------5h7p5-5-|----8p5-----5-5-|----8p5---------|
A|----------------|----------------|----------------|----------------|
E|----------------|----------------|----------------|----------------|

e|----------------|----------------|----------------|----------------|
B|----------6-----|6---6-----------|---------------5|-----------10h13|
G|----------5-----|5h7-5---5---5-5-|---------------5|---------10-----|
D|--------------7-|--------7p5-5-5-|------------5h7-|----7-----------|
A|----------------|----------------|----8-----------|----------------|
E|----------------|----------------|----------------|----------------|

e|10~-------------|----------------|----------------|----------------|
B|----------13-10~|----------------|----------------|--------------10|
G|----------------|----------12-10~|-------------10~|---------10h12--|
D|----------------|----------------|---------10h12--|----10h12-------|
A|----------------|----------------|----------------|----------------|
E|----------------|----------------|----------------|----------------|

e|----------------|----------------|----------------|------------------13~|
B|13/15~----13--10|--------------13|----------------|-----13h15---13h15---|
G|----------------|---------12h14--|12~-------------|12h14----------------|
D|----------------|----------------|--------------15|---------------------|
A|----------------|----------------|----------------|---------------------|
E|----------------|----------------|----------------|---------------------|

e|-----------13~--|---13~---------13~|-----------13~--|---13~---------13~|
B|------13h15---13|h15-------13h15---|------13h15---13|h15-------13h15---|
G|----------------|------------------|----------------|------------------|
D|----------------|------------------|----------------|------------------| (repeats and fades out...)
A|----------------|------------------|----------------|------------------|
E|----------------|------------------|----------------|------------------|

(Guitar 2 doesn’t play here in the recording, but can play chords under the chorus + solo)
e|----------------|----------------|----------------|----------------|
B|----------------|----------------|----------------|----------------|
G|3-3-3-3-5-5-5-5-|7-7-7-7-7-7-7-7-|----------------|3-3-3-3-3-3-3-3-|
D|3-3-3-3-5-5-5-5-|7-7-7-7-7-7-7-7-|3-3-3-3-3-3-3-3-|3-3-3-3-3-3-3-3-|
A|1-1-1-1-3-3-3-3-|5-5-5-5-5-5-5-5-|3-3-3-3-3-3-3-3-|1-1-1-1-1-1-1-1-|
E|----------------|----------------|1-1-1-1-1-1-1-1-|----------------|

e|----------------|----------------|----------------|----------------|
B|----------------|----------------|----------------|----------------|
G|3-3-3-3-5-5-5-5-|7-7-7-7-7-7-7-7-|5-5-5-5-5-5-5-5-|5-5-5-5-5-5-5-5-|
D|3-3-3-3-5-5-5-5-|7-7-7-7-7-7-7-7-|5-5-5-5-5-5-5-5-|5-5-5-5-5-5-5-5-| (repeat these 2 rows until fadeout)
A|1-1-1-1-3-3-3-3-|5-5-5-5-5-5-5-5-|3-3-3-3-3-3-3-3-|3-3-3-3-3-3-3-3-|
E|----------------|----------------|----------------|----------------|


************************************

| h   Hammer-on
| p   Pull-off
| /   Slide up
| \   Slide down
| ~   Vibrato

************************************
Suggest correction
Creating personal tab
Creating personal tab
You can edit any tab online and save it as your Personal.

You can edit, replace or remove any tab part or add personal notes – all changes will be seen only by you.

Personal tabs can be accessed anytime from any device, even offline.
Learn more »
Give kudos to tab author, rate the tab!
1 2 3 4 5
comments
print report bad tab
guest
You may want to rate the tab now too:
select rating
Wanna post a correction for this tab? Suggest correction