Oops, an error
Loading. Please wait.

Something To Tell You bass

by HAIM
391 views 9 this week
no commentswrite comment
1 2 3 4 5
2 more votes to show rating
add to favorites
×
Save as Personal and add changes to this tab that will be seen only by you. Learn more ›
×
You can save this tab as Personal to edit and correct it or add notes. All changes will be seen only by you. Learn more »
launch autoscroll
font size
0
reset
guitar tuner
edit
Autoscroll
slow
fast
+/-
esc
set tempo
stop
About this tab version
There's really just one major bass riff to the song, but lots of fills and embellishments. I tried to include all of those here. Was this info helpful? Yes No
[Verse] (No bass at first)
[0:25]                           [0:28]
G|--------------------------------|--------------------------------|
D|--------------------------------|10------------------------------|
A|--------------------------------|----10--------------------------|
E|--------------------------------|--------8---10----------10--10-0|

[Prechorus]
        P
G|------7-------------------------|--------------------------------|
D|--------------------------------|10----------------------5---7---|
A|--------------------------------|----10--------------------------|
E|5-5-----------5-6\\\\\\\--------|--------8---10----------------0-|

        P
G|------7-------------------------|--------------------------------|
D|--------------------------------|10------------------------------|
A|--------------------------------|----10--------------------------|
E|5-5-----------5-6\\\\\\\--------|--------8---10----------8---8-0-|

        P
G|------7-------------------------|----------------------------9-10|
D|-----------5-7------------------|10------------------------------|
A|--------------------------------|----10--------------------------|
E|5-5-------------6\\\\\\\--------|--------8---10------------------|

G|--9-----------------------------|--------------------------------|
D|----10--7---8-------------------|12------------------------------|
A|--------------------------------|----12--------------------------|
E|--------------------------------|--------10---8----------------0-|

[Chorus]
        P
G|------7-------------------------|--------------------------------|
D|--------------------------------|10------------------------------|
A|--------------------------------|----10--------------------------| (x2)
E|5-5----------5-6\\\\\\\--------|--------8---10----------------0-|

        P
G|------7---------------------5/7-|--------------------------------|
D|--------------------------------|10------------------------------|
A|--------------------------------|----10--------------------------|
E|5-5-----------5-6\\\\\\\--------|--------8---10----------------0-|

        P
G|------7-------------------------|--------------------------------|
D|--------------------------------|10------------------------------|
A|--------------------------------|----10--------------------------|
E|5-5-------5---5-6\\\\\\\--------|--------8---10----------------0-|

[Interlude]
("I wanna never say goodbye")
        P
G|------7-------------------------|--------------------------------|
D|--------------------------------|10------------------------------|
A|--------------------------------|----10--------------------------|
E|5-5-----------5-6\\\\\\\--------|--------8---10----------10--10--|

G|--------------------------------|--------------------------------|
D|--------------------------------|12------------------------------|
A|--------------------------------|----12--------------------------|
E|--------------------------------|--------10--8-----------8---8---|

[Verse]
G|--------------------------------|--------------------------------|
D|--------------------------------|10------------------------------|
A|--------------------------------|----10----------------------8---|
E|--------------------------------|--------8---10----------10------|

G|--------------------------------|--------------------------------|
D|--------------------------------|12------------------------------|
A|--------------------------------|----12--------------------------|
E|--------------------------------|--------10--8-------------------|

G|--------------------------------|--------------------------------|
D|--------------------------------|10------------------------------|
A|--------------------------------|----10--------------------------|
E|--------------------------------|--------8---10----------10--10--|

G|--------------------------------|--------------------------------|
D|--------------------------------|10------------------------------|
A|--------------------------------|----10------------------7---8---|
E|--------------------------------|--------8---10----------------0-|

[Prechorus]
        P
G|------7-----------------------7-|--------------------------------|
D|--------------------------------|10------------------------------|
A|--------------------------------|----10--------------------------|
E|5-5-------5---5-6\\\\\\\--------|--------8---10----------10--10-0|
        P
G|------7-------------------------|--------------------------------|
D|--------------------------------|10------------------------------|
A|--------------------------------|----10--------------------------| (x2)
E|5-5-------5---5-6\\\\\\\--------|--------8---10----------10--10-0|

        P
G|------7-------------------------|--------------------------------|
D|--------------------------------|12------------------------------|
A|--------------------------------|----12--------------------------|
E|5-5-------5---5-6\\\\\\\--------|--------10--8-----------8---0---|

[Chorus]
        P
G|------7-------------------------|--------------------------------|
D|--------------------------------|10------------------------------|
A|--------------------------------|----10--------------------------|
E|5-5-------5---5-6\\\\\\\--------|--------8---10----------10--10-0|

        P
G|------7-----------------10--7---|--------------------------------|
D|--------------------------------|10------------------------------|
A|--------------------------------|----10--------------------------|
E|5-5-------5---5-6\--------------|--------8---10----------10--10-0|

        P
G|------7---------------------7---|----7---9---7-------------------|
D|------------------------8-------|10------------------7-----------|
A|--------------------------------|------------------------8-------|
E|5-5-------5---5-6---------------|----------------------------10-0|

        P
G|------7-------------------------|--------------------------------|
D|--------------------------------|10------------------------------|
A|--------------------------------|----10--------------------------|
E|5-5-------5---5-6---------------|--------8---10----------10--10-0|

[Interlude]
("I wanna never say goodbye")
        P
G|------7-------------------------|--------------------------------|
D|--------------------------------|10------------------------------|
A|--------------------------------|----10--------------------------|
E|5-5-----------5-6\\\\\\\--------|--------8---10----------10--10--|

G|--------------------------------|--------------------------------|
D|--------------------------------|10------------------------------|
A|--------------------------------|----10-------------------7---8--|
E|--------------------------------|--------8---10------------------|

[Bridge]
G|--------------------------------|--------------------------------|
D|------------7---8---------------|10------------------------------|
A|--------10----------------------|----10--------------------------|
E|--------------------------------|--------8---10----------10--10--|

G|--------------------------------|--------------------------------|
D|--------------------------------|10------------------------------|
A|--------------------------------|----10------------------7---8---|
E|--------------------------------|--------8---10------------------|

G|--------------------------------|--------------------------------|
D|------------7---8---------------|10------------------------------|
A|--------10----------------------|----10--------------------------|
E|--------------------------------|--------8---10------------------|

G|------------------------7-------|--------------------------------|
D|--------7---10--8---------------|10------------------------------|
A|--------------------------------|----10--------------------------|
E|--------------------------------|--------8---10----------10--10-0|

        P
G|------7-------------------------|--------------------------------|
D|--------------------------------|10------------------------------|
A|--------------------------------|----10--------------------------|
E|5-5-------5---5-6\\\\\\\--------|--------8---10----------------0-|

        P
G|------7-------------------------|--------------------------------|
D|------------------------7-------|10------------------------------|
A|--------------------------------|----10--------------------------|
E|5-5-------5---5-6---------------|--------8---10----------10--10-0|

        P                                              P
G|------7-------------------------|--------------------10h12-------|
D|----------------------------7-8-|10------------------------------|
A|--------------------------------|----10--------------------------|
E|5-5-------5---5-6\\\\\\\--------|--------8---10----------------0-|

        P
G|------7-------------------------|--------------------------------|
D|--------------------------------|12------------------------------|
A|--------------------------------|----12--------------------------|
E|5-5-------5---5-6\\\\\\\--------|--------10--8-------------------|

[Chorus]
                                                       P
G|10--7---------------------------|--------------------12h14-------|
D|------10-8----------------------|--------------------------------|
A|------------8-------------------|--------------------------------|
E|--------------6-----------------|--------------------------------|

      P
G|--------------------------------|--------------------------------|
D|----7---------------------------|--------------------------------|
A|--------------------------------|--------------------------------|
E|5-5-----------------------------|------------------------------0-|

        P
G|------7---------------------7---|----7---9---7-------------------|
D|------------------------8-------|10------------------7-----------|
A|--------------------------------|------------------------5---5---|
E|5-5-------5---5-6\--------------|-------------------------------0|

        P
G|------7-------------------------|--------------------------------|
D|--------------------------------|10------------------------------|
A|--------------------------------|----10--------------------------|
E|5-5-------5---5-6\--------------|--------8---10----------10----0-|

        P                                              P
G|------7-------------------------|--------------------10h12-------|
D|------------------------8-------|10------------------------------|
A|--------------------------------|--------------------------------|
E|5-5-------5---5-6\--------------|--------8---10----------------0-|

        P                                              P
G|------7---------------------10--|--------------------12h14-------|
D|------------------------------12|10------------------------------|
A|--------------------------------|----10--------------------------|
E|5-5-------5---5-6\--------------|--------8---10----------------0-|

        P
G|------7---------------------7---|----7---9---7-------------------|
D|------------------------8-------|10------------------7-----------|
A|--------------------------------|------------------------5---5---|
E|5-5-------5---5-6\--------------|-------------------------------0|

        P                                              P
G|------7-------------------------|--------------------12h14-------|
D|--------------------------------|10------------------------------|
A|--------------------------------|----10--------------------------|
E|5-5-------5---5-6\--------------|--------8---10----------------0-|
                                         
[Outro] 
(There's also a synth bass here, tried to mix the two but it's tricky to play)
        P                                              P
G|------7-------------------------|--------------------10h12-------|
D|--------------------------------|10------------------------------|
A|--------------------------------|----10--------------------------|
E|5-5-----------5-6\--------------|--------8---10-----------10-10-0|

        P                                              P
G|------7-------------------------|--------------------12h14-------|
D|--------------------------------|10------------------------------|
A|--------------------------------|----10--------------------7-8---|
E|5-5-------5---5-6\--------------|--------8---10----------------0-|

        P                                              P
G|------7-------------------------|--------------------10h12-------|
D|--------------------------------|10------------------------------|
A|--------------------------------|----10--------------------------|
E|5-5-------5---5-6\--------------|--------8---10-----------10-10-0|

        P                                              P
G|------7-------------------------|--------------------12h14-------|
D|--------------------------------|10------------------------------|
A|--------------------------------|----10--------------------7-8---|
E|5-5-------5---5-6\--------------|--------8---10----------------0-|

        P                                              P
G|------7-------------------------|--------------------12h14-------|
D|--------------------------------|10------------------------------|
A|--------------------------------|----10--------------------------|
E|5-5-------5---5-6\--------------|--------8---10-----------10-10-0|

        P
G|------7-------------------------|--------------------------------|
D|--------------------------------|10------------------------------|
A|--------------------------------|----10---------(fades out...)---|
E|5-5-------5---5-6\--------------|--------8-----------------------|


************************************

| h   Hammer-on
| /   Slide up
| \   Slide down
| P   Pop

************************************

            
            
Suggest correction
Creating personal tab
Creating personal tab
You can edit any tab online and save it as your Personal.

You can edit, replace or remove any tab part or add personal notes – all changes will be seen only by you.

Personal tabs can be accessed anytime from any device, even offline.
Learn more »
Give kudos to tab author, rate the tab!
1 2 3 4 5
comments
print report bad tab
guest
You may want to rate the tab now too:
select rating
Wanna post a correction for this tab? Suggest correction