Oops, an error
Loading. Please wait.

The Wire Tab

version 1
version 1

Whole song

Interactive

by Haim
30,010 views 36 this week
3 commentsread comments
1 2 3 4 5
excellent!
x 12
add to favorites
launch autoscroll
font size
0
reset
how to read this tab
guitar tuner
Autoscroll
slow
fast
+/-
esc
set tempo
stop
Help us to improve Ultimate-Guitar.com Take our survey!
×
Author
laurenmz 1,266
-------------------------------------------------------------------------------
                             THE WIRE - Haim
-------------------------------------------------------------------------------
Tabbed by: Lauren Marquez
E-mail: lauren.marquez4@gmail.com

10/1/13
NOTE: Tab updated to include riffs from the album version of the song.
For extra riffs from the old/live version, scroll to the bottom.

Tuning: Standard


INTRO
e|-------------------------17pb19r17-14------|
B|-------17pb19r17-15-(17)-------------------|
G|--7-------------------------------------7--|
D|--7-------------------------------------7--|
A|--5-------------------------------------5--|
E|-------------------------------------------|


VERSE 1 (palm mute)
e|--------------|     e|-----------------------------|
B|--------------|     B|-----------------------------|
G|--------------|     G|-----------------------------|
D|--------------| x4  D|-----------------------------| (repeat all twice)
A|-555555555555-|     A|---------------------------5-|
E|--------------|     E|-555555555555-333333333333---|


CHORUS PT. 1
e|------------------------------|
B|------------------------------|
G|---------------------7--------|
D|--7-7-7-7-7h9--7-7h9---9-7h9--| x4
A|------------------------------|
E|------------------------------|

CHORUS PT 2.
e|--------------------|     e|-----------------------|
B|--------------------|     B|-----------------------|
G|------77------------|     G|-----7-9-9-9-7-7-7-7-7-|
D|--7-9----9-7-77-9-7-| x3  D|-7-9-------------------| (repeat all twice)
A|--------------------|     A|-----------------------|
E|--------------------|     E|-----------------------|


VERSE 2 
(bass only at first, then one guitar does the part from verse 1 and the other 
guitar does these riffs, listen to find out when)
  1.       2.            3.
e|--------|-------------|------------|
B|---17~--|-------------|------------|
G|--------|--777---777--|------------|
D|--------|--777---777--|---------7--|
A|--------|--555---555--|-----5h7----|
E|--------|-------------|-5h7--------|


BRIDGE
"...don't let your mind retire"
Guitar 1:
e|------------------------------------------------------------------|
B|------------------------------------------------------------------|
G|------------------------------------------------------------------|
D|------------------------------------------------------------------| x2
A|---------------------------555555555555-222222222222-000000000000-|
E|-555555555555-333333333333----------------------------------------|

Guitar 2: (after first guitar does the above part once)
e|--------------------------14-17-17/19~-17------------17171717171717-19~--|
B|--/12~-----------12-15-17-----------------(15/17-15)---------------------|
G|-----------11-14---------------------------------------------------------|
D|-------------------------------------------------------------------------|
A|-------------------------------------------------------------------------|
E|-------------------------------------------------------------------------|


SOLO
e|--------10-------------------------10-10-10-10-10-10--9-9--9-9-9-9--10-|
B|--10b12----12r10-8--------------/12-12-12-12-12-12-12-1010-10101010-12-|
G|-------------------11~-11-11-11----------------------------------------|
D|-----------------------------------------------------------------------| x2
A|-----------------------------------------------------------------------|
E|-----------------------------------------------------------------------|


OUTRO
e|----------------------------------5-7-------|
B|------------------------------5-7-----------|
G|------7---4---------------4-7---------------|
D|--5---7---4-----------4-7-------------------|
A|--5---5---2-------5-7-----------------------|
E|--3-----------5-7---------------------------|


********************************************************************************
Alana's riffs from the old/live version (http://www.youtube.com/watch?v=K936dIhm05Q):

Intro/Verse 1:
e|--------10------|
B|------------10--|
G|----11----------|
D|--12--12--12----|
A|----------------|
E|----------------|


Verse 2 part (during Este's verse):
e|--------5-----------5-----------5-----------5-----------7-----------7-----------5-----------5-|
B|----7-------7---7-------7---7-------7---7-------7---7-------7---7-------7---7-------7---7-----|
G|--7---7-------7---7-------6---6-------6---6-------7---7-------7---7-------6---6-------6---6---|
D|----------------------------------------------------------------------------------------------|
A|----------------------------------------------------------------------------------------------|
E|----------------------------------------------------------------------------------------------|

e|--------5-----------5-----------3-----------3--222--|
B|------------5-----------5-----------3----------333--|
G|----6-----------6-----------4-----------4------222--|
D|--7---7-------7---7-------5---5-------5---5----000--|
A|----------------------------------------------------|
E|----------------------------------------------------|



************************************
| /   slide up
| \   slide down
| h   hammer-on
| p   pull-off
| ~   vibrato
| +   harmonic
| x   Mute note
| b   Bend
| pb  Pre-bend
| br  Bend release
| pbr Pre-bend release
| brb Bend release bend
************************************
Suggest correction
What's this?
You can suggest a correction to this tab. Community and Mods will review your correction and vote to approve or reject it.
comments
print report bad tab
3 comments total.
+1 reply
HAIMRocker 453 wrote on November 22 2013, 06:29 am

This tab is perfect!! 5*

+1 reply
bannanaranger 80 wrote on December 10 2013, 01:59 pm

Amazing, thanks for putting this one up!!

+1 reply
DelValleKidd 742 wrote on December 25 2013, 05:19 pm

haha good one!

guest
You may want to rate the tab now too:
select rating
Please do not post tabs as comments. Select "correction" instead!