Oops, an error
Loading. Please wait.

When We Were Young tab

version 1
version 1

Whole song

by HAIM
185 views 6 this week
no commentswrite comment
1 2 3 4 5
3 more votes to show rating
add to favorites
×
Save as Personal and add changes to this tab that will be seen only by you. Learn more ›
×
You can save this tab as Personal to edit and correct it or add notes. All changes will be seen only by you. Learn more »
launch autoscroll
font size
0
reset
how to read this tab
guitar tuner
edit
Autoscroll
slow
fast
+/-
esc
set tempo
stop
[Intro]

(Cmaj7)  (C6) (Gmaj)       (Cmaj7)
e|-7-------5---3-------------7----7--7--10--7--5--7---------------|
B|-5-------5---0-------------5-----------------------8------------|
G|-5-------5---0-------------5------------------------------------|
D|----------------------------------------------------------------|
A|----------------------------------------------------------------|
E|----------------------------------------------------------------|

 (Cmaj7) (C6)         (Cmaj7)  (C6)        (F6b5)(D6sus4/G)  ((F6b5)) (D6sus4/G)
e|-7--7---5--5---------7--7--5--5---5-------5--5---3--3-------5--5---3----3--3---|
B|-5--5---5--5---------5--5--5--5---5-------3--3---3--3-------3--3---3----3--3---|
G|-5--5---5--5---------5--5--5--5---5-------4--4---4--4-------4--4---4----4--4---|
D|------------------------------------------3--3---5--5-------3--3---5----5--5---|
A|-------------------------------------------------------------------------------|
E|-------------------------------------------------------------------------------|


[Verse 1]

Talk to you,          the same old thing whoa-oa, meet you at ten around the corner of downer street 
e|-7--7---5--5---------7--7--5--5---5------------5--5---3--3-----------5--5---3------3--3---|
B|-5--5---5--5---------5--5--5--5---5------------3--3---3--3-----------3--3---3------3--3---|
G|-5--5---5--5---------5--5--5--5---5------------4--4---4--4-----------4--4---4------4--4---|
D|-----------------------------------------------3--3---5--5-----------3--3---5------5--5---|
A|------------------------------------------------------------------------------------------|
E|------------------------------------------------------------------------------------------|

  Whoah-o-ah                                       Whoah-o-ah
e|-7--7---5--5---------7--7--5--5---5------------5--5---3--3-----------5--5---3------3--3---|
B|-5--5---5--5---------5--5--5--5---5------------3--3---3--3-----------3--3---3------3--3---|
G|-5--5---5--5---------5--5--5--5---5------------4--4---4--4-----------4--4---4------4--4---|
D|-----------------------------------------------3--3---5--5-----------3--3---5------5--5---|
A|------------------------------------------------------------------------------------------|
E|------------------------------------------------------------------------------------------|

Yeah, okay,         your girlfriend's away, whoa-ah;    so does that mean that I can come and take her place
e|-7--7---5--5---------7--7--5--5---5-------------------5--5---3--3-----------5--5---3--------------3--3---|
B|-5--5---5--5---------5--5--5--5---5-------------------3--3---3--3-----------3--3---3--------------3--3---|
G|-5--5---5--5---------5--5--5--5---5-------------------4--4---4--4-----------4--4---4--------------4--4---|
D|------------------------------------------------------3--3---5--5-----------3--3---5--------------5--5---|
A|---------------------------------------------------------------------------------------------------------|
E|---------------------------------------------------------------------------------------------------------|

  Whoah-o-ah                                       Whoah-o-ah
e|-7--7---5--5---------7--7--5--5---5------------5--5---3--3-----------5--5---3------3--3---|
B|-5--5---5--5---------5--5--5--5---5------------3--3---3--3-----------3--3---3------3--3---|
G|-5--5---5--5---------5--5--5--5---5------------4--4---4--4-----------4--4---4------4--4---|
D|-----------------------------------------------3--3---5--5-----------3--3---5------5--5---|
A|------------------------------------------------------------------------------------------|
E|------------------------------------------------------------------------------------------|


[Chorus]

       Em            
Cause when we're together it feels like it did
      A                C
When we were younger, we were better
      D
Well, I remember, oh

{Riff again)
When we were young, yeah, yeah, yeah, yeah

When we were young


[Verse 2]

What we do, it's all up to you (whoa)

I bet she wouldn't mind if I spent a night or two (whoa whoa oh, whoa, whoa whoa oh)

And don't you know it's inevitable (whoa)

It's just a matter of time 'til you see it's just you and me (whoa whoa oh, whoa, whoa whoa oh)


[Chorus}

       Em
'Cause now I know I can see there it will be
      A             C
When we're together we'll be older
 D
I remember, oh

{Riff again)
When we were young, yeah, yeah, yeah, yeah

When we were young


[Outro)

Cmaj7        Gmaj7             Cmaj7
Remember when I (remember when I)
           Gmaj7 G  
Remember when, whoa

Em
You kissed me
A
Under a tree
D
And you carved initials:

You and me, L-O-V-E

{Riff again)
When we were young, yeah, yeah, yeah, yeah
When we were young


You and me under the tree (when we were young)
You and me under the tree (when we were young)
You and me under the tree (when we were young)
You and me under the tree (when we were young)
When we were young



 

            
            
Suggest correction
Creating personal tab
Creating personal tab
You can edit any tab online and save it as your Personal.

You can edit, replace or remove any tab part or add personal notes – all changes will be seen only by you.

Personal tabs can be accessed anytime from any device, even offline.
Learn more »
Give kudos to tab author, rate the tab!
1 2 3 4 5
comments
print report bad tab
guest
You may want to rate the tab now too:
select rating
Wanna post a correction for this tab? Suggest correction