Oops, an error
Loading. Please wait.

1985 bass

version 1
version 1

Whole song

Interactive

by Haken
805 views 3 this week
no commentswrite comment
1 2 3 4 5
1 last vote to show rating
add to favorites
×
Save as Personal and add changes to this tab that will be seen only by you. Learn more ›
×
You can save this tab as Personal to edit and correct it or add notes. All changes will be seen only by you. Learn more »
launch autoscroll
font size
0
reset
guitar tuner
edit
Autoscroll
slow
fast
+/-
esc
set tempo
stop
Author
Difficulty
-------------------------------------------------------------------------------
                             1985 - Haken
-------------------------------------------------------------------------------
Tabbed by: flame9800 

Tuning: 5 string Standard Tuning (BEADG)


 Guitar Intro (0:00)
G|---------------------------------------------------------------------------|
D|---------------------------------------------------------------------------|
A|---------------------------------------------------------------------------|
E|---------------------------------------------------------------------------|
B|---------------------------------------------------------------------------|
 
 (0:12)
G|---------------------------------------------------------------------------|
D|---------------------------------------------------------------------------|
A|----------4--------7-6-------------------------------9-7------7------------|
E|--2-2-4-5---2--4-6------7---------------------5/9-7------9-7----9-7--9-7---|
B|--------------------------7--5--5-5--7----5-7------------------------------|

G|---------------------------------------------------------------------------|
D|----------------------2----------------------------------------------------|
A|--------------2-2-4-4---4-2-4----------------------------------------------|
E|-5--2-4-4-5-5--------------------------------------------------------------|
B|---------------------------------------------------------------------------|

G|---------------------------------------------------------------------------|
D|---------------------------------------------------------------------------|
A|----------4--------7-6-------------------------------9-7------7------------|
E|--2-2-4-5---2--4-6------7---------------------5/9-7------9-7----9-7--9-7---|
B|--------------------------7--5--5-5--7----5-7------------------------------|
 
G|----------------------------------------------------------------------------|
D|----------------4-2---------------------------------------------------------|
A|--------------2--4-42---2---------------------------------------------------|
E|-5--2-4-4-5-5--------424-42----2-222-2-22-2-5-55-5-5--------------------0-0-|
B|---------------------------4~-----------------------4-4-4-4-2-2-0-0-2-2-----|

                                                                            x3
G|----------------------------------------------------------------------------|
D|*--------------------------------------------------------------------------*|
A|----------------------------------------------------------------------------|
E|*-2-222-2-22-2-5-55-5-5--------------------0-0-----------------------------*|
B|-----------------------4-4-4-4-2-2-0-0-2-2----------------------------------|

  (1:00)
G|---------------------------------------------------------------------------|
D|---------------------------------------------------------------------------|
A|---------------------------------------------------------------------------|
E|--2----------------2------------5------------5-----------------------------|
B|---------------------------------------------------------------------------|

G|---------------------------------------------------------------------------|
D|----------------------------------------4----------------4-----------------|
A|---------------------------------------------------------------------------|
E|--2-2-2---2-2-------2-2-2---2-2--2--------2-2---2-2--------2-2---2-2--2----|
B|---------------------------------------------------------------------------|

                   x4
G|------------------|------------------------------------------------------------|
D|*---4------4-----*|-----------------------2-2--------4-----4------4----4-------|
A|------------------|-------------------4-4--------------------------------------|
E|*-----2-2----2---*|------0-2-2-2--2-2---------2-2-2----2-----2-2----2----2-2---|
B|------------------|--1-3-------------------------------------------------------|

             t     t   t   t   t      t t   t      t     t  t   t      t   t  t  t  x3
G|------|---------14------16---------14----16-----------14-----16----------14---16---|
D|--4---|*--------14------16---------14----16-----------14-----16----------14---16--*|
A|------|----------------------------------------------------------------------------|
E|----2-|*--------------------------------------------------------------------------*|
B|------|---5h7-------7-------7p5h7-----7---------5h7-------7---------5h7-----7------|

     t    t t   t   t      t  t t    t
G|-------14----16---------14----16-------------------------------------------|
D|-------14----16---------14----16-------------------------------------------|
A|---------------------------------------------------------------------------|
E|---------------------------------------5---7-7\----------------------------|
B|--5h7-----7------7p5h7------7-----5h7----7---------------------------------|

  (2:14)
G|-----------------------------------------------------------------------------------|
D|-----------------------------------------------------------------------------------|
A|-----------------------------------------------------------------------------------|
E|-22-22-22-22---------------55-55-55-55-----------57575\--22-22-22-22---------------|
B|--------------22-22-22-22---------------55-55-55----------------------22-22-22-22--|

                               octaver on
G|---------------------------------------------------------------------------|
D|---------------------------------------------------------------------------|
A|---------------------------------------------------------------------------|
E|-55-55-55-55--555-7--5-4-----2br-00--2br-00-0--2br-00-2br-2br-00-0---------|
B|-------------------------5-------------------------------------------------|

                                    octaver off
G|---------------------------------------------------------------------------|
D|---------------------------------------------------------------------------|
A|---------------------------------------------------------------------------|
E|-2br-00--2br-00-0--2br-00-2br-2br-0-12br-12br------------------------------|
B|---------------------------------------------------------------------------|

  (2:49) count well, play on counterbeats                                     x3
G|----------9-------------9----------------------------------------------------|
D|*----11-----7--9---11-----7--9----11----------------------------------------*|
A|--------9--------7----9--------7-----9--7-7-9--------------------------------|
E|*---------------------------------------------------------------------------*|
B|-----------------------------------------------------------------------------|

  now play to the beat (follow drums)
G|---------------------------------------------------------------------------|
D|---------------------------------------------------------------------------|
A|---------------------------------------------------------------------------|
E|-22-2--2--2--2-2-22-25-----------------------------------------------------|
B|---------------------------------------------------------------------------|

   fuzz/distortion on
G|---------------------------------------------------------------------------|
D|---------------------------------------------------------------------------|
A|---------------------------------------------------------------------------|
E|---------------------------------------------------------------------------|
B|-57-77-77-77-77-77-77-77-757-77-77-77-77-77-77-77/10-10--------------------|

                                                         fuzz/distortion off
G|---------------------------------------------------------------------------|
D|---------------------------------------------------------------------------|
A|--------------------------------------------9-7----------------------------|
E|---------------------------------------------9-97---7----------------------|
B|-57-77-77-77-77-77-77-77-757-7-77-77-77-77-------979-974~------------------|

  (3:30)
G|-----------------------------------------------------------------------------------|
D|-----------------------------------------------------------------------------------|
A|-----------------------------------------------------------------------------------|
E|-22-22-22-22---------------55-55-55-55-----------57575\--22-22-22-22---------------|
B|--------------22-22-22-22---------------55-55-55----------------------22-22-22-22--|

                               octaver on
G|---------------------------------------------------------------------------|
D|---------------------------------------------------------------------------|
A|---------------------------------------------------------------------------|
E|-55-55-55-55--555-7--5-4-----2br-00--2br-00-0--2br-00-2br-2br-00-0---------|
B|-------------------------5-------------------------------------------------|
         
G|---------------------------------------------------------------------------|
D|---------------------------------------------------------------------------|
A|---------------------------------------------------------------------------|
E|-2br-00--2br-00-0--2br-00-2br-2br-0-12br-12br------------------------------|
B|---------------------------------------------------------------------------|

   fuzz/distortion on                                              octaver + fuzz/distortion off
G|---------------------------------------------------------------------------|
D|---------------------------------------------------------------------------|
A|---------------------------------------------------------------------------|
E|--2b-00--2b-00-0--2b-00-2b-2b-00-0--2b-00-2b-00-0-2222222-2222222----------|
B|---------------------------------------------------------------------------|

  (4:15)                                                           octaver on
G|---------------------------------------------------------------------------|
D|---------------------------------------------------------------------------|
A|------------------------4---7----------------------------------------------|
E|-2-2--2-22---2-2--2-2-2---5-----2-2--2-22---2-2--2-2-2/9-12----------------|
B|------------------------------------------------------------12-8-6-6--6-66-|

                                        octaver off
G|------------------------------------------------------------------------------|
D|------------------------------------------------------------------------------|
A|----------------------------------------8-------------------------------------|
E|------------9-----------------------------97--2-2--2-22---2-2--2-2-2/5-5-4-4--|
B|-6-6--6-6-6---87-6-6--6-66---6-6--6-6-6---------------------------------------|

         octaver on
G|---------------------------------------------------------------------------|
D|---------------------------------------------------------------------------|
A|--------------------------2------------------------------4242-5h7-4--------|
E|-2-2-2-5h7-7---2-2--2-2-2--42---1--1-1--1---1-1---1--1--1------------------|
B|-----------------------------4--------------------------------------6-6----|

                      let ring - octaver off
G|---------------------------------------------------------------------------|
D|---------------------------------------------------------------------------|
A|------------------2--------------------------------------------------------|
E|-------------5--3---2~-----------------------------------------------------|
B|-6--6-6-66-6---------------------------------------------------------------|

  (5:05)       x4                       x3
G|-------------|-------------------------|-------------------------------------|
D|*-----------*|*--------------9-11-----*|-------------9-11--------------------|
A|-------------|----5--7-9--12------7~---|--5--7-9--12------11-99-99-99--99----|
E|*-----------*|*-----------------------*|-------------------------------------|
B|--3--5-7~----|-------------------------|-------------------------------------|

  (5:46)
G|--------------------------------------------9------------------------------|
D|---------------------------------------11--9-------------------------------|
A|------------------------------------7----9---7~----------------------------|
E|--------------------------------7-9----------------------------------------|
B|--7-5-7--5--55-7-5-7-7-7--7-5-7--------------------------------------------|

G|-----------------------------------------------------------------------------|
D|-----------------------------------------------------------------------------|
A|-----------------------------------------------------------------------------|
E|-2-2-2-2-4-4-4-4-5-5-5-5-5-5-5-5---------------2/5----------------------2/5--|
B|---------------------------------444-0---444-0-------444-0--0-22--444-0------|

G|---------------------------------------------------------------------------|
D|---------------------------------------------------------------------------|
A|---------------------------------------------------------------------------|
E|---------------2/5----------------5-3~-------------------------------------|
B|-444-0---444-0------444-0---444-0------------------------------------------|

  (6:29)                                       octaver:  on     off          x2
G|----------------------------------------------------------------------------|
D|*--------------------------------------------------------------------------*|
A|----------------------------------------------------------------------------|
E|*-2-2-2/-3-3-3-3-3/-5-5-5-5/-6-6-6-6\--2-2-2-------------------------------*|
B|---------------------------------------------3-3-3-3-3/-8-8-8-8\-2-2-2-2----|

   fuzz/distortion on                                off                   x4
G|-------------------------------------------------------|------------------|
D|-------------------------------------------------------|*----------------*|
A|-------------------------------------------------4-7---|--99-99-99--99----|
E|-0--1----3--4-------------------3-4----------4-5-------|*----------------*|
B|-----------------2--3----6--7-------2-4--5-7-----------|------------------|

  (7:27)
G|---------------------------------------------------------------------------|
D|---------------------------------------------------------------------------|
A|---------------------------------------------------------------------------|
E|--22222222222222--------------55555555555555-------------------------------|
B|----------------22222222222222--------------55555555555555-----------------|

G|---------------------------------------------------------------------------|
D|---------------------------------------------------------------------------|
A|---------------------------------------------------------------------------|
E|--22222222222222----------------------------55555544444444-----------------|
B|----------------3333333333333355555555555555-------------------------------|

G|---------------------------------------------------------------------------|
D|---------------------------------------------------------------------------|
A|---------------------------------------------------------------------------|
E|--22222222222222----------------------------55555555555555-----------------|
B|----------------2222222222222255555555555555-------------------------------|

G|---------------------------------------------------------------------------|
D|-----------------------------------------------------4-2-------------------|
A|------------------------------------------------------4-42---2-------------|
E|--22222222222222--------------55555555555555--------------424-42-----------|
B|----------------33333333333333--------------5-5-5-0-------------4~---------|

                                                                             x4
G|----------------------------------------------------------------------------|
D|*--------------------------------------------------------------------------*|
A|----------------------------------------------------------------------------|
E|*-2-222-2-22-2-5-55-5-5--------------------0-0-----------------------------*|
B|-----------------------4-4-4-4-2-2-0-0-2-2----------------------------------|

     ??? (not sure about this part...)
G|---------------------------------------------------------------------------|
D|--4-242---2-----2--0-------------------------------------------------------|
A|---4---424-4240--20-44-242-------------------------------------------------|
E|----------------------4---424----------------------------------------------|
B|---------------------------------------------------------------------------|

    octaver on
G|---------------------------------------------------------------------------|
D|---------------------------------------------------------------------------|
A|---------------------------------------------------------------------------|
E|--2br-00--2br-00-0--2br-00-2br-2br-00-0------------------------------------|
B|---------------------------------------------------------------------------|
         
G|---------------------------------------------------------------------------|
D|---------------------------------------------------------------------------|
A|---------------------------------------------------------------------------|
E|-2br-00--2br-00-0--2br-00-2br-2br-0-12br-12br------------------------------|
B|---------------------------------------------------------------------------|

                                                                        octaver off (during slide)
G|----------------------------------------------------------------------------|
D|----------------------------------------------------------------------------|
A|----------------------------------------------------------------------------|
E|--2b-00--2b-00-0--2b-00-2b-2b-00-0--2b-00-2b-00-0-2b-00--2b-2b-0-12br-12br\-|
B|----------------------------------------------------------------------------|


************************************

| x   Dead note
| g   Grace note
| (n) Ghost note
| h   Hammer-on
| p   Pull-off
| r   Release
| >   Accented note
| t   Tapping
| b   Bend
| br  Bend release
| pb  Pre-bend
| pbr Pre-bend release
| /   Slide up
| \   Slide down
| ~   Vibrato
| s   Slap
| P   Pop
| PM  Palm mute
| TR  Trill
| N   Tremolo

************************************

Quick transcription of Conner Green's bassline for Haken's 1985 without detailed explanations for the
rhythm. Definetly isn't perfect. Let me know what you think in the comments. Feel free to improve the tab
as much as you like.
Suggest correction
Creating personal tab
Creating personal tab
You can edit any tab online and save it as your Personal.

You can edit, replace or remove any tab part or add personal notes – all changes will be seen only by you.

Personal tabs can be accessed anytime from any device, even offline.
Learn more »
Give kudos to tab author, rate the tab!
1 2 3 4 5
comments
print report bad tab
guest
You may want to rate the tab now too:
select rating
Wanna post a correction for this tab? Suggest correction