Oops, an error
Loading. Please wait.

Earthrise bass

version 1
version 1

Whole song

Interactive

by Haken
379 views 18 this week
4 commentsread comments
1 2 3 4 5
1 last vote to show rating
add to favorites
×
Save as Personal and add changes to this tab that will be seen only by you. Learn more ›
×
You can save this tab as Personal to edit and correct it or add notes. All changes will be seen only by you. Learn more »
launch autoscroll
font size
0
reset
guitar tuner
edit
Autoscroll
slow
fast
+/-
esc
set tempo
stop
Author
Difficulty
-------------------------------------------------------------------------------
                             Earthrise - Haken
-------------------------------------------------------------------------------
Tabbed by: flame9800 
Tuning: 5 string Standard Tuning (BEADG)


 [Intro] (0:00)                            
G|---------------------------------------------------------------------------|
D|---------------------------------------------------------------------------|
A|---------------------------------------------------------------------------|
E|---------------------------------------------------------------------------|
B|---------------------------------------------------------------------------|

  (0:14)
G|---------------------------------------------------------------------------|
D|-------7-------------------------------------------------------------------|
A|---------7---7-------7-----------------------------------------------------|
E|-5--5------5----0-0---0-------7-----7------7-------------------------------|
B|-------------------------0--0---0-0---0-0---0------------------------------|

G|---------------------------------------------------------------------------|
D|-------7-------------------------------------------------------------------|
A|---------7---7-------7-----------------------------------------------------|
E|-5--5------5----0-0---0-------7-----7------7-------------------------------|
B|-------------------------0--0---0-0---0-0---0---0--------------------------|

G|---------------------------------------------------------------------------|
D|-------7-------------------------------------------------------------------|
A|---------7---7-------7-----------------------------------------------------|
E|-5--5------5----0-0---0-------7-----7------7-------------------------------|
B|-------------------------0--0---0-0---0-0---0------------------------------|

                             fuzz/distortion on
G|---------------------------------------------------------------------------|
D|------7--------------------------------------------------------------------|
A|--------7---4--4-4--4-4~---2-2---2---2---2---2-----------------------------|
E|-5--5-----5----------------------------------------------------------------|
B|-------------------------------0---0---0---0---0~--------------------------|

fuzz/distortion off
G|-----------------------------------------------------------------------------|
D|---------7--------------9-9-------7------------------------------------------|
A|----------------------------------------------4-2----------------------------|
E|--5-5--5----5-5--5-5--7------5-5----5--5-5--5-----4--5-5--5-5--5-5--5-7-7-7--|
B|-----------------------------------------------------------------------------|

G|---------------------------------------------------------------------------------|
D|---------------------------------------------------------------------------------|
A|-------------------4-7---9----------------5-7--------------------------4/14\11---|
E|--5-5--5-5--5-5--5-----9----5-5--5-5--5-7-----9--7-9--5-5--5-5--5-5--5-----------|
B|---------------------------------------------------------------------------------|

G|-----------------------------------------------------------------------------|
D|-----------------------------------------------------------------------------|
A|------------------------------------4------2--4------------------------------|
E|--5-5--5-5--5-5--5-7---7--5-5--5-5---0-2-4-------4~--------------------------|
B|---------------------7-------------------------------------------------------|

(1:13) octaver + fuzz/distortion on
G|-----------------------------------------------------------------------------------------------|
D|-----------------------------------------------------------------------------------------------|
A|--0-0-0-0-0-0-0-0-2---0-0-0-0-0-0-0-0-2-------------------2-------------------2----------------|
E|------------------------------------------2-2-2-2-2-2-2-2-----2-2-2-2-2-2-2-2------------------|
B|-----------------------------------------------------------------------------------------------|

octaver + fuzz/distortion off                                             fuzz/distortion on
G|--8----------------------------------------------------------------------------------------|
D|---9-7----------------------------------------------------------------------7---9h11-11-9--|
A|------9-7----7-9-7-7-9------------------------------4-4-4-2--------------------------------|
E|---------9-10-----8----5-5/-17-17---------5--5-5-5-----------5--5-5-5--5--5--5-------------|
B|-------------------------------------------------------------------------------------------|

G|---------------------11-11-----------------------------------------------|
D|------7--------------------11-11-9--11-11\-------------------------------|
A|-----------4-4-4-4-------------------------------------------------------|
E|--5-5---5----------------------------------5--5-5--5-5--5h7-7\---7-7\----|
B|---------------------------------------------------------------0---------|

G|------------------------------------------------------------------------------------|
D|------------------------------------------------------------------------------------|
A|------------------------------------------------------------------------------------|
E|--5-5--5-5--5-5--5-9-9--9--4-5-5--5-5--5-5--5-7-7\---7-7\-5-5--5-5----9\--------4~--|
B|---------------------------------------------------0----------------------2--4------|

(1:57) octaver on
G|-----------------------------------------------------------------------------------------------|
D|-----------------------------------------------------------------------------------------------|
A|--0-0-0-0-0-0-0-0-2---0-0-0-0-0-0-0-0-2-------------------2-------------------2----------------|
E|------------------------------------------2-2-2-2-2-2-2-2-----2-2-2-2-2-2-2-2------------------|
B|-----------------------------------------------------------------------------------------------|

G|---------------------------------------------------------------------------|
D|---------------------------------------------------------------------------|
A|--0-0-0~----2---0-0-0~----2---------------2--------------------------------|
E|-------------------------------2-2--2-2-2------0-0--0-0-0------------------|
B|---------------------------------------------------------------------------|

fuzz/distortion off
G|---------------------------------------------------------------------------|
D|-------7-------------------------------------------------------------------|
A|---------7---7-------7-----------------------------------------------------|
E|-5--5------5----0-0---0-------7-----7------7-------------------------------|
B|-------------------------0--0---0-0---0-0---0------------------------------|

G|---------------------------------------------------------------------------|
D|-------7-------------------------------------------------------------------|
A|---------7---7-------7-----------------------------------------------------|
E|-5--5------5----0-0---0-------7-----7------7--7----------------------------|
B|-------------------------0--0---0-0---0-0---0--0---------------------------|

G|---------------------------------------------------------------------------|
D|-------7-------------------------------------------------------------------|
A|---------7---7-------7-----------------------------------------------------|
E|-5--5------5----0-0---0-------7-----7------7-------------------------------|
B|-------------------------0--0---0-0---0-0---0---0--------------------------|

                                                  octaver off
G|---------------------------------------------------------------------------|
D|------7--------------------------------------------------------------------|
A|--------7---4--4-4--4-4~---2-2---2---2---2---2-----------------------------|
E|-5--5-----5----------------------------------------------------------------|
B|-------------------------------0---0---0---0---0~--------------------------|

(2:54)
G|------------------------------------------------------------------------------------|
D|-----------------------------4--6-7-6----------------7-7----------------------------|
A|-----------------------4-9-6---------9-7-6-7-6------------5-6-7---------------------|
E|--5--5-5-5-----5-5--7-------------------------9-7-5\-----------5--------------------|
B|------------------------------------------------------------------------------------|

G|------7-5-----------------------------------------------------------------------------------------------|
D|--7-7----7-5-7-5-4-5-7-5----------------------7--7-7--------------------------------------------4-------|
A|------------------6---------------------------------------9-7-7-6----3--------------------4-5-0---6-7---|
E|-------------------------7-7--7-7-9-7----5-5---------5-----------7-5--4-2-0-5-5-5-5-7-5-7---------------|
B|--------------------------------------9-----------------------------------------------------------------|

G|------------------------------------------------------------------------------------|
D|--4-----4---------------------------------------------------------------------------|
A|----6-7---------------5------------------5------------------5-----------------------|
E|--------------------------------------------------------------------------3--5-7\---|
B|----------1--1-1--3-----3--3-1--1-1--3-----3-1--0--0-0--3-----3--1-0--0-0-----------|

G|-----------------------------------------------------------------------------------------------|
D|-----------------------------------------------------------------------------------------------|
A|---------3--------5-------------3--------------------------------------------------5------3~---|
E|---------------------------------------3-------------3----5-------------3----5-----------------|
B|--1-1-1-----1-3-----3--3-1-1-1----1-3----3-1--0-0--0----0---3-0--0-0--0----0----3----3--3------|

piano break - rest
G|---------------------------------------------------------------------------|
D|---------------------------------------------------------------------------|
A|---------------------------------------------------------------------------|
E|---------------------------------------------------------------------------|
B|---------------------------------------------------------------------------|

  (3:59)                    x2
G|---------------------------|---------------------5-----------------------------------------------|
D|*-------------------------*|-----------------------5---5-------5---------------------------------|
A|---3~--------------5~------|--5-5-5-5-5-5--3--3------3--------------------5-----5------5---------|
E|*----------3~-------------*|------------------------------3-3----3-3--------5--------------------|
B|---------------------------|-----------------------------------------3--3-----3----3-3---3-------|

G|-----------5-----------------------------------------------|
D|-------------5---5-------5---------------------------------|
A|---2-3--3------3--------------------5-----5-----5---5------|
E|--------------------3-3----3-3--------5--------------------|
B|-------------------------------3--3-----3---3-3---3---3----|

G|---------------------------------------------------------------------------|
D|---------------------------------------------------------------------------|
A|---------------------------------------------------------------------------|
E|--------3--3-3--3-3--3-----------------------------------------------------|
B|-1-1--1----------------3-3--3-3--3-3-3-3-3-3-3-----------------------------|

G|---5------------------------------------------------------------------------|
D|---5---------5----5-5--2-2-0------------------------------------------------|
A|-3-3--3---------------------------------------------------------------------|
E|--------3--3----3-3----------0------0------0----0---------------------------|
B|-------------------------------3-3----3-3----3----3~------------------------|

************************************

| h  Hammer-on
| /  Slide up
| \  Slide down
| ~  Vibrato
| *  

************************************

Quick transcription of Conner Green's bassline for Haken's Earthrise without detailed explanations for the
rhythm. Definetly isn't perfect. Let me know what you think in the comments. Feel free to improve the tab
as much as you like.

            
            
Suggest correction
Creating personal tab
Creating personal tab
You can edit any tab online and save it as your Personal.

You can edit, replace or remove any tab part or add personal notes – all changes will be seen only by you.

Personal tabs can be accessed anytime from any device, even offline.
Learn more »
Give kudos to tab author, rate the tab!
1 2 3 4 5
comments
print report bad tab
4 comments total. Showing first comments.
+1 reply
my_name_is_sam 132 Nov 21, 2016 10:18 AM

Great tabs! The timing for this song is brutal, but this is a good start to get the notes down.

+1 reply
Debml 1,035 Jan 01, 2017 10:14 PM

according to Conner's video playthrough (https://www.youtube.com/watch?v=q9qY0ninxBg), this would be in Drop A instead of using an octaver (you can pretty much achieve the same though), haven't nailed everything yet, but this seems good for the most part! :)

guest
You may want to rate the tab now too:
select rating
Wanna post a correction for this tab? Suggest correction