Oops, an error
Loading. Please wait.

Initiate bass

version 1
version 1

Whole song

Interactive

by Haken
623 views 3 this week
no commentswrite comment
1 2 3 4 5
1 last vote to show rating
add to favorites
×
Save as Personal and add changes to this tab that will be seen only by you. Learn more ›
×
You can save this tab as Personal to edit and correct it or add notes. All changes will be seen only by you. Learn more »
launch autoscroll
font size
0
reset
guitar tuner
edit
Autoscroll
slow
fast
+/-
esc
set tempo
stop
Author
Difficulty
-------------------------------------------------------------------------------
                             Initiate - Haken
-------------------------------------------------------------------------------
Tabbed by: flame9800 

Tuning: 5 string Standard Tuning (BEADG)

 Intro (0:00)                            
G|----------------------------------------------------------------------------------------------------
D|----------------------------------------------------------------------------------------------------
A|--2222-22-222-222222-22-222-220000-00-000-000000-00-000-007777-77-777-777777-77-777-775555-55-555---
E|----------------------------------------------------------------------------------------------------
B|----------------------------------------------------------------------------------------------------

G|-------------------|
D|-------------------|
A|-4444-44-444-------|
E|-------------------|
B|-------------------|

 Rest (0:16)
G|---------------------------------------------------------------------------|
D|---------------------------------------------------------------------------|
A|---------------------------------------------------------------------------|
E|---------------------------------------------------------------------------|
B|---------------------------------------------------------------------------|

 (0:41)        octaver: on            off
G|---------------------------------------------------------------------------|
D|---------------------------------------------------------------------------|
A|---------------------------------------------------------------------------|
E|-----------------------3---10-9-7\--3--5--5-5------------------------------|
B|--5--3----8-8--7--8\3----3-------------------------------------------------|

 (0:58)
G|-----------------------------------------------------------------------------------------------------
D|-----------------------------------------------------------------------------------------------------
A|-----------------------------------------------------------7777-77-777-777777-77-777-775555-55-555---
E|---7777-77-777-777777-77-777-775555-55-555-555555-55-555-55------------------------------------------
B|-----------------------------------------------------------------------------------------------------

G|-------------------|
D|-------------------|
A|-4444-44-444-------|
E|-------------------|
B|-------------------|

 (1:14)
G|---------------------------------9--------------------------------------------------------------|
D|-------9------9---------7---7/11---12-11-9------------------------------------------------------|
A|-------------------------------------------12-9-9--7-5-7-7------------------7----7--------------|
E|-5/7-7--7-7-7---7-7-5-5--5------------------------------------7--------0-5-7--5-7--7-5----------|
B|----------------------------------------------------------------5-5-5---------------------------|  

G|------------7h9-------------------------------------------------------------------------------------------
D|------9---------9---------6--------------5-----------------7h9----------------------16-------14-----------
A|----------------------------------------------------9-7-5------11-10-9-6-7---14-14-----14-14----14-14-----
E|--7-7---7-7-------7-7-4-4---4-4-4-4-4-3----3-3-/-10-------------------------------------------------------
B|----------------------------------------------------------------------------------------------------------

G|----14h16------------------------------------------------------------------------------------------------|
D|-----------16-14-----------------------------------------------------------------------------------------|
A|-----------------16-14\----------------------------------------------------------------------------------|
E|---------------------------14\-10\---3-5-----------------------------------------------------------------|
B|-----------------------------------3---------------------------------------------------------------------|

 (1:56)
G|------------------------------------------------------------------------------------------------------
D|------------------------------------------------------------------------------------------------------
A|------------------------------------------------------------------------------------------------------
E|---7777-77-777-777777-77-777-775555-55-555-555555-55-555-55-------------------------------------------
B|-----------------------------------------------------------5555-55-555-555555-55-555-553333-33-333----

G|-------------------|
D|-------------------|
A|-------------------|
E|-------------------|
B|-2222-22-222-------|

G|----------------------------------------------------------------------------------------------------
D|----------------------------------------------------------------------------------------------------
A|----------------------------------------------------------------------------------------------------
E|---3333-33-333-333333-33-333-332222-22-222-222222-22-222-223333-33-333-333333-33-333-336666-66-666--
B|----------------------------------------------------------------------------------------------------

G|-------------------|
D|-------------------|
A|-------------------|
E|-6666-66-666-------|
B|-------------------|

G|---------------------------------------------------------------------------|
D|---------------------------------------------------------------------------|
A|-----9---10---9------------------------------------------------------------|
E|--66--66---66--66-10-66-7\-------------------------------------------------|
B|---------------------------------------------------------------------------|

 Interlude (2:30)
G|---------------------------------------------------------------------------------------------------------
D|---------------------------------------------------------------------------------------------------------
A|-----2-2------1---1-----1-------2---2----2-2------1---1-----1-------5---5-----5-5-------4---4-----4-4----
E|---------------------------------------------------------------------------------------------------------
B|--00----0-0-0---0---000---2-0-0---0---00----0-0-0---0---000---2-0-0---0---0-0-----0-0-0---0---000--------

G|---------------------------------------------------------------------------|
D|---------------------------------------------------------------------------|
A|------5---5-------------5---5~----4---4-----4-4----------------------------|
E|---------------------------------------------------------------------------|
B|--0-0---0------------00---0-----0---0---000--------------------------------|

 (2:46)                                                                 
G|---------------------------------------------------------------------------------|
D|-----9---9-----8-8-------5--5-----4----------------------------------------------|
A|------------------------------------------7---7-----5-5------4---4------1/4------|
E|-7-7---7---6-6----6--3-3--3---222---2-0-0---0------------------------------------|
B|------------------------------------------------3-3----3-2-2---2----222----------|

G|----------------------------------------------------------------------------------|
D|-----9---9-----8-8-------5--5-----4-----------------------------------------------|
A|------------------------------------------7---7-----5--5------4---4---------------|
E|-7-7---7---6-6----6--3-3--3---222---2-0-0---0-------------------------222--6-6----|
B|------------------------------------------------3-3--3---2-2---2------------------|

G|---------------------------------------------------------------------------|
D|---------------------------------------------------------------------------|
A|---------------------------------------------------------------------------|
E|--7-77-77-666-66-3-33-33-222-2-2--0-00-00------------------333/6-6---------|
B|-------------------------------------------3333-33-2-22-22-----------------|

G|--------------------------------------------------------------------------------|
D|--------------------------------------------------------------------------------|
A|--------------------------------------------------------------------------------|
E|--77777777-6666666-3333333-2222222-00000000-----------------222/14-14-14--------|
B|--------------------------------------------3333333-2222222---------------------|

 Rest (3:22)
G|---------------------------------------------------------------------------|
D|---------------------------------------------------------------------------|
A|---------------------------------------------------------------------------|
E|---------------------------------------------------------------------------|
B|---------------------------------------------------------------------------|
 
 Outro (3:39)
G|---------------------------------------------------------------------------------------------------------|
D|---------------------------------------------------------------------------------------------------------|
A|---------------------------------------------------------------------5------------------------------5----|
E|------------2-0--0---12\-0--3-------------3--5-5/-17-17\15\-----------------5-2-3-3-3--15\--5------------|
B|--5-3--3----------------------3--3---3-3---------------------5-3-3-3---3-3--------------------3-3-3-3----|

G|---------------------------------------------------------------------------|
D|---------------------------------------------------------------------------|
A|---------------------------------------------------------------------------|
E|--3--5--5-5-555------------------------------------------------------------|
B|---------------------------------------------------------------------------|

************************************

| x   Dead note
| g   Grace note
| (n) Ghost note
| h   Hammer-on
| p   Pull-off
| r   Release
| >   Accented note
| t   Tapping
| b   Bend
| br  Bend release
| pb  Pre-bend
| pbr Pre-bend release
| /   Slide up
| \   Slide down
| ~   Vibrato
| s   Slap
| P   Pop
| PM  Palm mute
| TR  Trill
| N   Tremolo

************************************

Quick transcription of Conner Green's bassline for Haken's Initiate without detailed explanations for the
rhythm. Definetly isn't perfect. Let me know what you think in the comments. Feel free to improve the tab
as much as you like.

Suggest correction
Creating personal tab
Creating personal tab
You can edit any tab online and save it as your Personal.

You can edit, replace or remove any tab part or add personal notes – all changes will be seen only by you.

Personal tabs can be accessed anytime from any device, even offline.
Learn more »
Give kudos to tab author, rate the tab!
1 2 3 4 5
comments
print report bad tab
guest
You may want to rate the tab now too:
select rating
Wanna post a correction for this tab? Suggest correction