Oops, an error
Loading. Please wait.

The Architect bass

version 1
version 1

Whole song

Interactive

by Haken
436 views 1 this week
2 commentsread comments
1 2 3 4 5
3 more votes to show rating
add to favorites
×
Save as Personal and add changes to this tab that will be seen only by you. Learn more ›
×
You can save this tab as Personal to edit and correct it or add notes. All changes will be seen only by you. Learn more »
launch autoscroll
font size
0
reset
guitar tuner
edit
Autoscroll
slow
fast
+/-
esc
set tempo
stop
Author
Difficulty
-------------------------------------------------------------------------------
                             The Architect - Haken
-------------------------------------------------------------------------------
Tabbed by: flame9800 

Tuning: 5 string Standard Tuning (BEADG)

 Intro (0:00)                            
G|---------------------------------------------------------------------------|
D|---------------------------------------------------------------------------|
A|---------------------------------------------------------------------------|
E|---------------------------------------------------------------------------|
B|---------------------------------------------------------------------------|

  (1:06)
G|---------------------------------------------------12----------------11--------7-------|
D|---------------------12--------------------13--10------10-----11---------9--------5-8--|
A|----------14-----10-------------15-----11------------------8------9---------7----------|
E|------12------8--------------13-----9--------------------------------------------------|
B|--10---------------------11------------------------------------------------------------|

G|--------------6--5-----------------------------------------------------------|
D|--7-----8-----------------------------------------9--8-----------------------|
A|--------------------5--6--5-----8--7--------------------5--6--8--7--9--------|
E|-----9-----8-----------------4--------4--7--5--9-----------------------8-----|
B|-----------------------------------------------------------------------------|

G|---------------------------------------------------12----------------11--------7-------|
D|---------------------12--------------------13--10------10-----11---------9--------5-8--|
A|----------14-----10-------------15-----11------------------8------9---------7----------|
E|------12------8--------------13-----9--------------------------------------------------|
B|--10---------------------11------------------------------------------------------------|

G|--------------6--5---------------------------------------------------------------------|
D|--7-----8-----------------------------------------9--8---------------------------------|
A|--------------------5--6--5-----8--7---------------------------------------------------|
E|-----9-----8-----------------4--------4--7--5--9---------------------------------------|
B|--------------------------------------------------------3--4--7--6--5--4---------------|

G|---------------------------------------------------------------------------|
D|---------------------------------------------------------------------------|
A|---------------------------------------------------------------------------|
E|---------------------------------------------------------------------------|
B|--2\1--1---2\1--1---2\1--1---3-5---2\1--1---2\1--1---2\1--1---7-9----------|

G|---------------------------------------------------------------------------|
D|---------------------------------------------------------------------------|
A|---------------------------------------------------------------------------|
E|--------------------------------------------------------------9-7-6--------|
B|--5\4--4---5\4--4---5\4--4---7-9---5\4--4---5\4--4---5\4--4----------------|

G|---------------------------------------------------12----------------11--------7-------|
D|---------------------12--------------------13--10------10-----11---------9--------5-8--|
A|----------14-----10-------------15-----11------------------8------9---------7----------|
E|------12------8--------------13-----9--------------------------------------------------|
B|--10---------------------11------------------------------------------------------------|

G|--------------6--5-----------------------------------------------------------|
D|--7-----8-----------------------------------------9--8-----------------------|
A|--------------------5--6--5-----8--7--------------------5--6--8--7--9--------|
E|-----9-----8-----------------4--------4--7--5--9-----------------------8-----|
B|-----------------------------------------------------------------------------|

G|---------------------------------------------------12----------------11--------7-------|
D|---------------------12--------------------13--10------10-----11---------9--------5-8--|
A|----------14-----10-------------15-----11------------------8------9---------7----------|
E|------12------8--------------13-----9--------------------------------------------------|
B|--10---------------------11------------------------------------------------------------|

G|--------------6--5---------------------------------------------------------------------|
D|--7-----8-----------------------------------------9--8---------------------------------|
A|--------------------5--6--5-----8--7---------------------------------------------------|
E|-----9-----8-----------------4--------4--7--5--9---------------------------------------|
B|--------------------------------------------------------3--4--5--6--7--8---------------|

  (1:51)
G|----------------------------------------------------------------------------|
D|------------------10--6-----6---------10--6-----6--------10--6-----6--------|
A|-------------------------7-----7-------------7-----7------------7-----7-----|
E|----------------------------------8-------------------8------------------8--|
B|------------1~--------------------------------------------------------------|

G|------------------------------------------------------------------------------------|
D|---10--6-----6---------10--6-----6--------10--6-----6-------------------------------|
A|----------7-----7-------------7-----7------------7-----7----------------------------|
E|-------------------8-------------------8------------------8---0-0--0-0--0-0--0-0----|
B|------------------------------------------------------------------------------------|

G|------------------------------------------------------------------------------------|
D|---10--6-----6---------10--6-----6--------10--6-----6--------10--6------------------|
A|----------7-----7-------------7-----7------------7-----7------------7---------8-9---|
E|-------------------8-------------------8------------------8-------------10-11-------|
B|------------------------------------------------------------------------------------|

G|--------------------------------------------------------------------------|
D|---12--8-----8---------12--8-----8---------12--8-----8--------------9-10--|
A|----------9-----9-------------9-----9-------------9-----------10-11-------|
E|-------------------10------------------10---------------12-13-------------|
B|--------------------------------------------------------------------------|

G|----------------------------------------------------------------------------------|
D|--14--10------10----------14--10------10------10----------14--10------10----------|
A|----------11------11--------------11------11------11--------------11------11------|
E|----------------------12------------------------------12----------------------12--|
B|----------------------------------------------------------------------------------|

G|------------------------7-8---11--7-----7--------11--7-----7-----7-----7--------|
D|--14--10------10---9-10--------------8-----8------------8-----8-----8-----8-----|
A|----------11----------------------------------9------------------------------9--|
E|--------------------------------------------------------------------------------|
B|--------------------------------------------------------------------------------|

G|--11--7-----7------------------9-10-11---12--8-----8---------12--8-----8-----8---------|
D|---------8-----8------11-12-13------------------9-----9-------------9-----9-----9------|
A|------------------9--------------------------------------10------------------------10--|
E|---------------------------------------------------------------------------------------|
B|---------------------------------------------------------------------------------------|

G|--12--8-----8-----8-----8---------12--8-----8---------12--8-----8-----8------------|
D|---------9-----9-----9-----9-------------9-----9-------------9-----9-----9---------|
A|------------------------------10------------------10------------------------10-----|
E|-----------------------------------------------------------------------------------|
B|-----------------------------------------------------------------------------------|

G|--12--8-----8-----8-----8--------------------------------------------------------|
D|---------9-----9-----9-----9-----------------------------------------------------|
A|------------------------------10-------------------------------------------------|
E|---------------------------------------------------------------------------------|
B|----------------------------------0--0--0--0-0--0--0-0-0---0--0--0-0--0--0-0-0---|

                              let ring
G|---------------------------------------------------------------------------|
D|--------1-2-4--------------------------------------------------------------|
A|--2-3-4---------------------0~---------------------------------------------|
E|---------------------------------------------------------------------------|
B|---------------1~----------------------------------------------------------|

  (2:48) rest
G|---------------------------------------------------------------------------|
D|---------------------------------------------------------------------------|
A|---------------------------------------------------------------------------|
E|---------------------------------------------------------------------------|
B|---------------------------------------------------------------------------|

  (3:01)
G|---------------------------------------------------------------------------|
D|---------------------------------------------------------------------------|
A|---------------------8------------------------------------5----------------|
E|--5------4--------------------6----5-----4--------------------6------------|
B|---------------6--6------3---------------------6-----3--3------------------|

                                                                            x2
G|---------------------------------------------------------------------------|
D|*-------------------------------------------------------------------------*|
A|---------------------------------------------------------------------------|
E|*-----5-5-5-5--5-5--5-5-5--5-5-5-5-5-5--5-5--3-5-5------------------------*|
B|---------------------------------------------------------------------------|

                                                                             x2
G|----------------------------------------------------------------------------|
D|*--------------------------------------------------------------------------*|
A|-------------3---------5----------------------------------------------------|
E|*--------5-----5--5-5----5-5--5-5--5-5--5-5-5--3-5-5-----------------------*|
B|----------------------------------------------------------------------------|

  (3:50)
G|-----------------------------------------------------------------------------------------------|
D|----------7------------------------------------------------------------------------------------|
A|----------------------------------3-5-2----------------5---------------------------------------|
E|--5-5-5-5---5--5-5-5-5-3-3--3-3-3-------5-3-0------------------------1-1--1-1-1-1-1-1-1-1-1-1--|
B|-----------------------------------------------3-3-3-3----3--3-3-3-3---------------------------|

G|-----------------------------------------------------------------------------------|
D|----------7------------------------------------------------------------------------|
A|------------------------------------0-0-2-2-3-3------------------------------------|
E|--5-5-5-5---5--5-5-5-5-3-3--3-3-3-3------------------------------1-1-1-1-1-1-1-1---|
B|-------------------------------------------------3-3-3-3-3-3-3-3-------------------|

G|-----------------------------------------------------------------------------------------------|
D|----------7------------------------------------------------------------------------------------|
A|----------------------------------3-5-2----------------5---------------------------------------|
E|--5-5-5-5---5--5-5-5-5-3-3--3-3-3-------5-3-0------------------------1-1--1-1-1-1-1-1-1-1-1-1--|
B|-----------------------------------------------3-3-3-3----3--3-3-3-3---------------------------|


G|-----------------------------------------------------------------------------------|
D|----------7------------------------------------------------------------------------|
A|------------------------------------0-0-2-2-3-3------------------------------------|
E|--5-5-5-5---5--5-5-5-5-3-3--3-3-3-3------------------------------------------------|
B|-------------------------------------------------3-3-3-3-3-3-3-3-1-1-1-1-1-1-1-1---|

  (4:20)
G|----------------------------------------------------------------------------------------------|
D|----------------------------------------------------------------------------------------------|
A|----------------------------------------------------------------------------------------------|
E|--5-5-5-5-5-5--5-5-5-5-5-5-5-5-5-5-5-5-----5-5-5-5-5-5--5-5-5-5-5-5-5-5-5-5-5-5--5-5-5-5-5-5--|
B|----------------------------------------------------------------------------------------------|

G|-------------------------------------------------------------------------------------------|
D|-------------------------------------------------------------------------------------------|
A|-------------------------------------------------------------------------------------------|
E|--4-4-4-4-4-4--4-4-4-4-4-4-4-4-4-4-4-4--4-4-4-4-4-4--1-1-1-1-1-1--1-1-1-1-1-1-1-1-1-1-1-1--|
B|-------------------------------------------------------------------------------------------|

G|-------------------------------------------------------------------------------|
D|-------------------------------------------------------------------------------|
A|-------------------------------------------------------------------------------|
E|--1-1-1-1-1-1---------------------------6-6-6-6-6-6--6-6-6-6-6-6--5-5-5-5-5-5--|
B|---------------3-3-3-3-3-3--3-3-3-3-3-3----------------------------------------|

G|-------------------------------------------------------------------------------------------|
D|-------------------------------------------------------------------------------------------|
A|-------------------------------------------------------------------------------------------|
E|--5-5-5-5-5-5-5-5-5-5-5-5--5-5-5-5-5-5--4-4-4-4-4-4--4-4-4-4-4-4-4-4-4-4-4-4--4-4-4-4-4-4--|
B|-------------------------------------------------------------------------------------------|

G|------------------------------------------------------------------------------------------------------|
D|------------------------------------------------------------------------------------------------------|
A|------------------------------------------------------------------------------------------------------|
E|--1-1-1-1-1-1--1-1-1-1-1-1-1-1-1-1-1-1--1-1-1-1-1-1---------------------------6-6-6-6-6-6--6-6-6-6-6--|
B|-----------------------------------------------------3-3-3-3-3-3--3-3-3-3-3-3-------------------------|

  (4:49)
G|----------------------------------------------------------------------------------------------|
D|-----7-5---------------------<7>-<7>---------------------7-5-----------------------<7>-<7>----|
A|---------7------------------------------0-0---0-1------------7--------------------------------|
E|--5--------5--5--5-5--5--5-5---------5------3-------5--5-------5--5-5--5-5--5--5-5---------5--|
B|----------------------------------------------------------------------------------------------|

G|-------------------------------------------------------------------|
D|-------------------7-5-----------------------<7>-<7>---------------|
A|--0---0----------------7--------------------------------0-0---0-1--|
E|----3---5-6b--5--5-------5--5-5--5-5--5--5-5---------5------3------|
B|-------------------------------------------------------------------|

G|--------------------------------------------------------|
D|-------7-5----------------------<7>-<7>-----------------|
A|-----------7------------------------------0----0-1b-----|
E|--5--5--------5--5--5-5--5--5-5---------5----3----------|
B|--------------------------------------------------------|

  (5:17)
G|-----------------------------------------------------------------------------------------------|
D|----------7------------------------------------------------------------------------------------|
A|----------------------------------3-5-2----------------5---------------------------------------|
E|--5-5-5-5---5--5-5-5-5-3-3--3-3-3-------5-3-0------------------------1-1--1-1-1-1-1-1-1-1-1-1--|
B|-----------------------------------------------3-3-3-3----3--3-3-3-3---------------------------|

G|-----------------------------------------------------------------------------------|
D|----------7------------------------------------------------------------------------|
A|------------------------------------0-0-2-2-3-3------------------------------------|
E|--5-5-5-5---5--5-5-5-5-3-3--3-3-3-3------------------------------1-1-1-1-1-1-1-1---|
B|-------------------------------------------------3-3-3-3-3-3-3-3-------------------|

G|-----------------------------------------------------------------------------------------------|
D|----------7------------------------------------------------------------------------------------|
A|----------------------------------3-5-2----------------5---------------------------------------|
E|--5-5-5-5---5--5-5-5-5-3-3--3-3-3-------5-3-0------------------------1-1--1-1-1-1-1-1-1-1-1-1--|
B|-----------------------------------------------3-3-3-3----3--3-3-3-3---------------------------|

                                                                                     let ring
G|----------------------------------------------------------------------------------------|
D|----------7-----------------------------------------------------------------------------|
A|------------------------------------0-0-2-2-3-3---------------------------3--2----------|
E|--5-5-5-5---5--5-5-5-5-3-3--3-3-3-3---------------------------------------------3--5~---|
B|-------------------------------------------------3-3-3-3-3-3-3-3-1-1-1-1----------------|

  (5:59) rest
G|---------------------------------------------------------------------------|
D|---------------------------------------------------------------------------|
A|---------------------------------------------------------------------------|
E|---------------------------------------------------------------------------|
B|---------------------------------------------------------------------------|

  (6:36) bass solo
G|--------------9------12----9----------------------------------12-14-15-14-17-19---------------|
D|--7---7-10-10-----12----9-----10-9-7----------12-----14-12-14-------------------20-19---------|
A|---------------------------------------15-14-----14-----------------------------------20-17---|
E|----------------------------------------------------------------------------------------------|
B|----------------------------------------------------------------------------------------------|

G|-----------17-19-21-19-17-19-------------------------------------------15--15/19--18---18-15--------|
D|--------17-------------------20-19-------17-17h19-17\-12h14------------15--15/19--18---------18-15--|
A|--17/19----------------------------20-17--------------------15br\--13------13/17--16----------------|
E|----------------------------------------------------------------------------------------------------|
B|----------------------------------------------------------------------------------------------------|

G|------------------------------15h17/19-17-15-------------------------------------|
D|-----------------------15-18-----------------18-15-------------------------------|
A|--19-16----------16-19-----------------------------19-16-------------------------|
E|--------18-16-18-----------------------------------------18-17br\--17-14-12-14b--|
B|---------------------------------------------------------------------------------|

G|------------------------------------12------------------|
D|--------11-12br-----12h14--12-14-15----14--15-14-12-----|
A|--12-14----------12-------------------------------------|
E|--------------------------------------------------------|
B|--------------------------------------------------------|

  (7:13)
G|--------16-------19-------16-------19-------16-------19-------16-------19-------16-------19----|
D|-----14-------17-------14-------17-------14-------17-------14-------17-------14-------17-------|
A|--12-------15-------12-------15-------12-------15-------12-------15-------12-------15----------|
E|-----------------------------------------------------------------------------------------------|
B|-----------------------------------------------------------------------------------------------|

G|--------19-------22-------19-------22-------19-------22-------19-------22-------19-------22----|
D|-----17-------20-------17-------20-------17-------20-------17-------20-------17-------20-------|
A|--15-------18-------15-------18-------15-------18-------15-------18-------15-------18----------|
E|-----------------------------------------------------------------------------------------------|
B|-----------------------------------------------------------------------------------------------|

G|--------18-------21-------18-------21-------18-------21-------18-----9-----9------12----|
D|-----16-------19-------16-------19-------16-------19-------16------7-----7-----10-------|
A|--14-------17-------14-------17-------14-------17-------14-------5-----5-----8----------|
E|----------------------------------------------------------------------------------------|
B|----------------------------------------------------------------------------------------|

G|------9------12----9------12-----9------12-----9------12-----9------12\----|
D|----7-----10-----7-----10------7-----10------7-----10------7-----10--------|
A|--5-----8------5-----8-------5-----8-------5-----8-------5-----8-----------|
E|---------------------------------------------------------------------------|
B|---------------------------------------------------------------------------|

  (7:50) octaver on
G|--------------------------------------------------------------------------------------|
D|--------------------7-7--------------------7------------------------------10----------|
A|----------------------------------7-------------------7---7--------------------10-----|
E|---5---3h5-5-5---5------5---5-5-5---5--5-5---5-5-5--5---5-----8--8-8-8--8----8----8---|
B|--------------------------------------------------------------------------------------|

G|--------------------------------------------------------------------------------------------|
D|--------------------------10----------10--------------------9---------------9---------------|
A|---------------10----10------------------10---------------------9-------9-------9-----9-----|
E|--8-8-8--8-8-8-----8----8----8--8-8-8-------8---7--7-7-7--7---7----7--7---7---7----7----7---|
B|--------------------------------------------------------------------------------------------|

G|-------------------------------7--5-----------7\----------------------------7-5----|
D|------------------------------------7-------------------------------------------7--|
A|------9-----------9---9---5--5---------5--5-5----------5--3------5/8---5--5--------|
E|--7-7---7-10-7--7---7---------------------------------------5----------------------|
B|--------------------------------------------------3--3--------3--------------------|

G|-----------------------------------------------------------------------------------------|
D|-------7-7-----------7------7----------------------7-5------------10--8--------------10--|
A|-----------7------------------7-----------7------7-----7----------------10-----10-10-----|
E|---5---------5---5-5-----5------5-5---5-5----5-8---------5/8--8-8-----------8------------|
B|-----------------------------------------------------------------------------------------|

G|------------------------------------------------------------------------------------|
D|--------10--8--------------8-10------10--------------9--7----9--11--12----9-------9-|
A|--------------10--------10------10--------10--------------9-------------9---9---9---|
E|-8--8-8-----------8--11------------8----8----8--7--7--------------------------7-----|
B|------------------------------------------------------------------------------------|

G|------------------------------------------------------------------7--5----------7-----7--|
D|------------9-7--------------------------------------------------------7------7-----7----|
A|----------9-----9---------------5---------------------5--------5---------5--5-----5------|
E|-7-----7----------7-9-10\---------5---------------------5--------------------------------|
B|----0----------------------3--3-----3-3--5-6-5-3-3--3-----3-3----------------------------|

G|---------------------------------------------------------------------------------------|
D|--------7----------7--------7-----------------------7-5-------10--8------------10------|
A|----------7--------------------7-----------7-5----------------------10-----------------|
E|--5--5------5-5--5----5--5-------5-5--8-5-------8-5------8--8-----------8--8-8-----8---|
B|---------------------------------------------------------------------------------------|

G|--------------------------------------------------------------------------------------------|
D|-----10--8--------------8-10------10-----------------9-11-12\--------9--7--------------9----|
A|-----------10--------10------10------10-----------------------------------9--------9--------|
E|-8-8-----------8--11------------8--------8--7-----7-------------7--7--------7--7-7---7---7--|
B|----------------------------------------------0-0-------------------------------------------|

G|-----------------------------------------------------7-5-------7-5-------|
D|----------9----------------------------------------------7---7-----7-----|
A|------9-----------5-3--------5------------5--------5-------5---------5---|
E|--7-7---7-----------------------------------5----------------------------|
B|-------------3--3-----3-3--3-----3-x-x-x------3-3------------------------|

  (9:41)
G|------4-----7------4-----7-----4-----7-----4-----7-----4-----7--------------------------|
D|----2-----5------2-----5-----2-----5-----2-----5-----2-----5----------------------------|
A|--0-----3------0-----3-----0-----3-----0-----3-----0-----3---------5-----8-----5-----8--|
E|-----------------------------------------------------------------3-----6-----3-----6----|
B|---------------------------------------------------------------1-----4-----1-----4------|

G|---------------------------------------------------------------------------------------------------|
D|---------------------------------------------------------------------------------------------------|
A|------5-----8-----5-----8-----5-----8-----4-----7-----4-----7-----4-----7-----4-----7-----4-----7--|
E|----3-----6-----3-----6-----3-----6-----2-----5-----2-----5-----2-----5-----2-----5-----2-----5----|
B|--1-----4-----1-----4-----1-----4-----0-----3-----0-----3-----0-----3-----0-----3-----0-----3------|

G|---------------------------------------------------------------------|
D|---------------------------------------------------------------------|
A|------7-----10-----7-----10-----7-----10-----7-----10-----7-----10---|
E|----5-----8------5-----8------5-----8------5-----8------5-----8------|
B|--3-----6------3-----6------3-----6------3-----6------3-----6--------|

  (10:17) octaver off
G|-----------------------------------------------------------------------------------|
D|*----------------------------------------------------------------------------------|
A|--0-0--0--0-0--0-0-0-0--0-0--0--0-0--0-0--3-3--3--3-3--3-3-3-3--3-3--3--3-3--3-3---|
E|*----------------------------------------------------------------------------------|
B|-----------------------------------------------------------------------------------|

                                                                                       x2
G|--------------------------------------------------------------------------------------|
D|-------------------------------------------------------------------------------------*|
A|--1-1--1--1-1--1-1-1-1--1-1--1--1-1--1-1--4-4--4--4-4--4-4-4-4--4-4--4--4-4--4-4-4-4--|
E|-------------------------------------------------------------------------------------*|
B|--------------------------------------------------------------------------------------|

  (10:45)
G|----------------------------------------------------------------------------------|
D|----------------------------------------------------------------------------------|
A|----------------------------------------------------------------------------------|
E|--5-5--5--5-5--5-5-5-5--5-5--5--5-5--5-5--8-8--8--8-8--8-8-8-8--8-8--8--8-8--8-8--|
B|----------------------------------------------------------------------------------|

G|--------------------------------------------------------------------------------------|
D|--------------------------------------------------------------------------------------|
A|--------------------------------------------------------------------------------------|
E|--6-6--6--6-6--6-6-6-6--6-6--6--6-6--6-6--9-9--9--9-9--9-9-9-9--9-9--9--9-9--9-9-9-9--|
B|--------------------------------------------------------------------------------------|

G|-------------------------------------------------------------------------------------------|
D|-------------------------------------------------------------------------------------------|
A|--------------14-14--14-15-14-----12-12--------------------------------17-17--17-18-17-----|
E|--------12-12-----------------15--------15-15-12-12-14-14--------15-15-----------------18--|
B|--10-10----------------------------------------------------13-13---------------------------|

G|------------------------------------------------------------------------------------|
D|------------------------------------------------------------------------------------|
A|--15-15--------------------------------15-15--15-16-15-----13-13--------------------|
E|--------18-18-15-15-17-17--------13-13-----------------16--------16-16-13-13-15-15--|
B|---------------------------11-11----------------------------------------------------|

G|-----------------------------------------------|
D|-----------------------------------------------|
A|--------------18-18--18-19-18-16------18-16\---|
E|--------16-16----------------------16----------|
B|--14-14----------------------------------------|

  (11:13)                                                octaver + fuzz/distortion on
G|------------------------------------------------------------------------------------------|
D|------------------------------------------------------------------------------------------|
A|------------------------------------------------------------------------------------------|
E|--3--3--3--3-3--3--3-3-3--3--3--3-3--3--3-3-3--3/15\3--3-x-3-x-3-x-3-3-x-3-x-3-3-3-x-x-x--|
B|------------------------------------------------------------------------------------------|

G|---------------------------------------------------------------------------------------------|
D|----------------------------------------5---------5-----------5--------5---------5-----------|
A|-------------------------------------4----4-4--4----4-4--4-4----4---4----4-4--4----4-4--4/14-|
E|--3-x-3-x-3-3-x-3-x-3-3-3-x-3----------------------------------------------------------------|
B|------------------------------3-0-1----------------------------------------------------------|

G|-----------------------------------------------------------------------------|
D|-----------------------------------------------------------------------------|
A|-----------------------------------------------------------------------------|
E|-------7----------7------------7--------7----------7------------7-4----------|
B|-2/(5)----2-2/(5)----2-2-2/(5)----2/(5)----2-2/(5)----2-2-2/(5)-----6-5-4-3--|

  (11:45)
G|--------------------------------------------------------------------------------------|
D|--------------------------------------------------------------------------------------|
A|------------------------------------------------14\-10-6---6------10-6---6---6--------|
E|-3--3-3--3--3-3--3--3-3--3--3-3--3-3--3--3-3-3-----------7---7---------7---7---7------|
B|---------------------------------------------------------------8-----------------8----|

G|--------------------------------------------------------------------------------|
D|--------------------------------------------------------------------------------|
A|-10-6---6---6---6-------10-6---6------10-6---6---6-------10-6---6---6---6-------|
E|------7---7---7---7----------7---7---------7---7---7----------7---7---7---7-----|
B|--------------------8--------------8-----------------8----------------------8\--|

G|----------------------------------------------------------------------------------------|
D|----------------------------------------------------------------------------------------|
A|--4-4p0-4--4-4p0-4--4-4-4-4p0--4-4p0-4--4p0-4-4-4-4-4p0--4-4p0-4--4p0--4-4-4-4p0-4-4p0--|
E|----------------------------------------------------------------------------------------|
B|----------------------------------------------------------------------------------------|

G|--------------------------------|
D|--------------------------------|
A|-4-4-4-4-0-4-4-4-4-4-4----------|
E|--------------------------------|
B|--------------------------------|

  (12:18)
G|----------------------------------------------------------------------------------|
D|*---------------------------------------------------------------------------------|
A|----------4--------------4-4---------4-------------4-4---------4-4---------5------|
E|*-----3-3---2b-------3-3---------3-3---2b------3-3---------3-3---------4-4---2b---|
B|--2-2------------2-2---------2-2-----------2-2---------2-2---------3-3------------|

                                                        x3
G|-------------------------------------------------------|
D|------------------------------------------------------*|
A|----------5-5---------5-------------5-5---------5-5----|
E|------4-4---------4-4---2b------4-4---------4-4-------*|
B|--3-3---------3-3-----------3-3---------3-3------------|

G|----------------------------------------------------------------------------------|
D|----------------------------------------------------------------------------------|
A|----------4--------------4-4---------4-------------4-4---------4-4---------5------|
E|------3-3---2b-------3-3---------3-3---2b------3-3---------3-3---------4-4---2b---|
B|--2-2------------2-2---------2-2-----------2-2---------2-2---------3-3------------|

G|--------------------------------------------------------|
D|--------------------------------------------------------|
A|----------5-5---------5-------------5-5----------5-5-5--|
E|------4-4---------4-4---2b------4-4--------4-4-4--------|
B|--3-3---------3-3-----------3-3-------------------------|

  (13:02)                                                  ??? (not sure about this part)
G|-----------------------------------12------------11--------------------------------7--------|
D|------9------12-----10------13--10----10----11------9-8\---12-11-------5---8-7---7----------|
A|----7-----10------8------11---------------8----8---------7-------10\-----0-----5-----5-7-3--|
E|--5-----8-------6------9--------------------------------------------------------------------|
B|--------------------------------------------------------------------------------------------|

G|-----------------------------------12------------11--------------------------------7--------|
D|------9------12-----10------13--10----10----11------9-8\---12-11-------5---8-7---7----------|
A|----7-----10------8------11---------------8----8---------7-------10\-----0-----5-----5-7-3--|
E|--5-----8-------6------9--------------------------------------------------------------------|
B|--------------------------------------------------------------------------------------------|

                   octaver + fuzz/distortion off
G|-----------------------------------------------------------------------------|
D|-----------------------------------------------------------------------------|
A|--1-1-2-2-3-3----------------------------------------------------------------|
E|-----------------5-5--5--5--5-5--5-5--3-3--3--3--3-3--3----------------------|
B|---------------------------------------------------------3--3--3--3-3--3-3---|

G|------------------------------------------------------------------------------------------|
D|------------------------------------------------------------------------------------------|
A|---------------------------------------3--3--3-3--3-3--5-5-5--5-5--5-5--3-3-3--2-2--2-2---|
E|-------------------5-5-5--5--5-5--5-5-----------------------------------------------------|
B|--6-6-6--8-8--8-8-------------------------------------------------------------------------|

G|-------------------------------------------------------------------------------|
D|-------------------------------------------------------------------------------|
A|-------------------------------------------------------------------------------|
E|--5-5--5--5--5-5--5-5--3-3--3--3--3-3--3---------------------------------------|
B|------------------------------------------3--3--3--3-3--3-3--6-6-6--8-8--8-8---|

G|----------------------------------------------------------------|
D|----------------------------------------------------------------|
A|----------------------------------------------------------------|
E|--5-5-5--5--5-5--5-5--8--8--8--8-8--8--8--8--10-10-10-8-8-7-7---|
B|----------------------------------------------------------------|

G|------------------------------------------------------------------------------|
D|------------------------------------------------------------------------------|
A|----------------------3-3-3-3-3-3-3-3-3-3-3-5-5-5-5-5-5-5-5-5-5---3---2--0~---|
E|--5-5-5-5-5-5-5-5-5-5---------------------------------------------------------|
B|------------------------------------------------------------------------------|

G|------------------------------------------------------------------|
D|--------------------------------------------------3~---6~---------|
A|------------------------------------------------------------------|
E|---3~--------------------------1~-----0~------1~-------4~---------|
B|---------3~------1~-----0~----------------------------------------|

  (14:24)
G|----------------------------------------------------------------------------------|
D|----------------------------------------------------------------------------------|
A|----------------------------------------------------------------------------------|
E|--5-5-5-5-5-5--5--5-5-5-5-5-5-5-5-5-5--5-5--5-5-5-5-5-5-5-5--3-3--3--3-3-3-3-3-3--|
B|----------------------------------------------------------------------------------|

G|-------------------------------------------------------------------------------------------|
D|-------------------------------------------------------------------------------------------|
A|-------------------------------------------------------------------------------------------|
E|--3-3--3-3-3-3-3-3-3-3-3-3-3-3-------------------------------------------------------------|
B|--------------------------------3-3--3--3-3-3-3-3-3-3-3--3-3--3--3-3-3--1-1--1-1--1-1-1-1--|

G|--------------------------------------------------------------------------------------------------|
D|--------------------------------------------------------------------------------------------------|
A|--------------------------------------------------------------------------------------------------|
E|---------------------------1-1-1-1--1-1--1-1-1-1-1-1--1-1--1-1-1-1-1-1-1-1--0-0--0-0-0-0-0-0-0-0--|
B|-0-0-0-0--0-0-0-0-0-0-0-0-------------------------------------------------------------------------|

G|---------------------------------------------------------------------------------------------------|
D|---------------------------------------------------------------------------------------------------|
A|---------------------------------------------------------------------------------------------------|
E|--0-0--0-0-0-0--1-1-1-1-1-1--1-1--1-1-1-1-1-1-1-1--1-1--4-4-4-4-4-4-4-4--4-4--4-4-4-4--4-4-4-4-4-4-|
B|---------------------------------------------------------------------------------------------------|

G|----------------------------------------------------------------------------------|
D|----------------------------------------------------------------------------------|
A|----------------------------------------------------------------------------------|
E|--5-5-5-5-5-5--5--5-5-5-5-5-5-5-5-5-5--5-5--5-5-5-5-5-5-5-5--3-3--3--3-3-3-3-3-3--|
B|----------------------------------------------------------------------------------|

G|-------------------------------------------------------------------------------------------|
D|-------------------------------------------------------------------------------------------|
A|-------------------------------------------------------------------------------------------|
E|--3-3--3-3-3-3-3-3-3-3-3-3-3-3-------------------------------------------------------------|
B|--------------------------------3-3--3--3-3-3-3-3-3-3-3--3-3--3--3-3-3--1-1--1-1--1-1-1-1--|

G|--------------------------------------------------------------------------------------------------|
D|--------------------------------------------------------------------------------------------------|
A|--------------------------------------------------------------------------------------------------|
E|---------------------------1-1-1-1--1-1--1-1-1-1-1-1--1-1--1-1-1-1-1-1-1-1--0-0--0-0-0-0-0-0-0-0--|
B|-0-0-0-0--0-0-0-0-0-0-0-0-------------------------------------------------------------------------|

G|----------------------------------------------------------------------------------------------------------|
D|----------------------------------------------------------------------------------------------------------|
A|----------------------------------------------------------------------------------------------------------|
E|--0-0--0-0-0-0--1-1-1-1-1-1--1-1--1-1-1-1-1-1-1-1--1-1--4-4-4-4-4-4-4-4--4-4--4-4-4-4/--16-16-16-16-16-16-|
B|----------------------------------------------------------------------------------------------------------|

                  x15
G|------------------|----------------------------------------------------------|
D|*----------------*|----------------------------------------------------------|
A|--12p0-0-0-0-0----|---12-12-12-12--------------------------------------------|
E|*----------------*|----------------------------------------------------------|
B|------------------|----------------------------------------------------------|



************************************

| x   Dead note
| g   Grace note
| (n) Ghost note
| h   Hammer-on
| p   Pull-off
| r   Release
| >   Accented note
| t   Tapping
| b   Bend
| br  Bend release
| pb  Pre-bend
| pbr Pre-bend release
| /   Slide up
| \   Slide down
| ~   Vibrato
| s   Slap
| P   Pop
| PM  Palm mute
| TR  Trill
| N   Tremolo
| <>  Harmonic

************************************

For the intro, since the bass and the guitar both play the same riff, I transcribed memefactory's guitar tab
which seemed pretty accurate to me. Be sure to check it out here:

https://tabs.ultimate-guitar.com/h/haken/the_architect_intro_tab.htm

Also used this bass cover for the tricky bits: https://youtu.be/WW_BBqrxgJc be sure to check that out too!

Quick transcription of Conner Green's bassline for Haken's The Architect featuring Einar Solberg without 
detailed explanations for the rhythm. Definetly isn't perfect. Let me know what you think in the comments.
Feel free to improve the tab as much as you like.

            
            
Suggest correction
Creating personal tab
Creating personal tab
You can edit any tab online and save it as your Personal.

You can edit, replace or remove any tab part or add personal notes – all changes will be seen only by you.

Personal tabs can be accessed anytime from any device, even offline.
Learn more »
Give kudos to tab author, rate the tab!
1 2 3 4 5
comments
print report bad tab
2 comments total.
0 reply
swainplayah 10 Sep 01, 2017 03:54 PM

Connor doesn't play the opener like that. He showed me specifically he plays it all on the E. it's the same pattern so it's easier to just move you hand rather than string.

0 reply
flame9800 213 Oct 04, 2017 07:27 PM

Nice! I mostly used the guitar tab to tab out this bassline, since both instruments play pretty much the same thing. Feel free to submit new versions of the tab with a corrected intro if you want, I don't mind if the rest of the tab is copy-pasted into a new one. I'll try to practice and tab it out with Conner's technique soon, see how it goes :) Conner is always a more reliable than any for his own basslines lol!
Cheers!

guest
You may want to rate the tab now too:
select rating
Wanna post a correction for this tab? Suggest correction