Oops, an error
Loading. Please wait.

Blue Sky tab

version 2
version 2

Whole song

Interactive

by Hale
36,438 views 93 this week
17 commentsread comments
1 2 3 4 5
x 13
add to favorites
×
Save as Personal and add changes to this tab that will be seen only by you. Learn more ›
×
You can save this tab as Personal to edit and correct it or add notes. All changes will be seen only by you. Learn more »
launch autoscroll
font size
0
reset
how to read this tab
guitar tuner
edit
Autoscroll
slow
fast
+/-
esc
set tempo
stop
Author
band/Artist: Hale
Song title: Blue sky
Tabbed by: stanley tan!!! ng ceu

standard tuning (EADGBe)

[Intro]

guitar 1
e|------------------------|
B|------------------------|
G|-4----3----2------------|
D|-4----4----2----6-------| 
A|-2----2----0----6-------| 
E|----------------4-------|(2x)

guitar 2
e|--------------------------------------|
B|--------------------------------------|
G|--------------------------------------|  
D|-2/4--2p1-2p1----2p1-2p1---2p1-2/4-4--|
A|--------------2----------2------------| 
E|--------------------------------------|(2x)

[Verse 1]

                                 before the 1st verse ends
e|------------------------|    e|---7-7-7-|
B|------------------------|   
G|-4----3----2------------|
D|-4----4----2----6-------| 
A|-2----2----0----6-------| 
E|----------------4-------|

[Chorus]
guitar 1

e|------------------------|
B|------------------------|
G|-4----3----2------------|
D|-4----4----2----6-------| 
A|-2----2----0----6-------| 
E|----------------4-------|

guitar 2

e|-7---7---7---7---7-----6h7-6---6h7-6---6---7---7---7---7---7----|
B|---7---7---7---7---7---------7-------7-------7---7---7---7---7--|
G|----------------------------------------------------------------|
D|----------------------------------------------------------------| 
A|----------------------------------------------------------------| 
E|----------------------------------------------------------------|

e|-9---9----7---7----|
B|---7---7-----7---7-|
G|-------------------|
D|-------------------| 
A|-------------------| 
E|-------------------|

[Verse 2]
                        
e|------------------------|         e|---------|
B|------------------------|         B|-12------|
G|-4----3----2------------|         G|---11----|
D|-4----4----2----6-------|         D|------9--|
A|-2----2----0----6-------|         A|---------|
E|----------------4-------|         E|---------|


e|------------------------|
B|-4-5-4---(6x)---4-5---2-|
G|-------4------------4---|
D|------------------------| 
A|------------------------| 
E|------------------------|

[Chorus]

e|------------------------|
B|------------------------|
G|-4----3----2------------|
D|-4----4----2----6-------| 
A|-2----2----0----6-------| 
E|----------------4-------|

[Verse 3]
guitar 1

e|------------------------|
B|------------------------|
G|-4----3----2------------|
D|-4----4----2----6-------| 
A|-2----2----0----6-------| 
E|----------------4-------|

guitar 2

e|----------------------------------------------------|
B|-4-5-4---(4x)---4-----2-2-----2-2-----2-2-----2-2---|
G|-------4----------4-4-----4-4-----4-4-----4-4-------| 
D|----------------------------------------------------| 
A|----------------------------------------------------| 
E|----------------------------------------------------|

e|--------------------------------------------2---2-|
B|-4-5-4---(4x)---4-----2-2-----2-2-----2-2---------|
G|-------4----------4-4-----4-4-----4-4-----4---4---| 
D|--------------------------------------------------| 
A|--------------------------------------------------| 
E|--------------------------------------------------|

[Chorus]

e|------------------------|
B|------------------------|
G|-4----3----2------------|
D|-4----4----2----6-------| 
A|-2----2----0----6-------| 
E|----------------4-------|

[Bridge]
guitar 1                         guitar 2 w/ distortion

e|-------------|           e|--------------|
B|-------------|           B|--------------|
G|---------4---|           G|--------------|
D|-2---4---4---| (2x)      D|--9--------9\-|   (2x)
A|-2---4---2---|           A|--9--(6x)--9\-|
E|-0---2---x---|           E|--7--------7\-|

e|------------------------------|
B|------------------------------|
G|-------4--3-------------------|
D|-2--4--4--4--6--4--2------4---| 
A|-2--4--2--2--6--4--2------4---|
E|-0--2--------4--2--0------2---|

acoustic part(chorus chords)

guitar 1
e|------------------------|
B|------------------------|
G|-4----3----2------------|
D|-4----4----2----6-------| 
A|-2----2----0----6-------| 
E|----------------4-------|

guitar 2
e|-7---7---7---7---7----6h7-6---6h7-6---6---7---7---7---7---7---9--9---7-7-|
B|---7---7---7---7---7--------7-------7-------7---7---7---7---7--7---7-----|
G|-------------------------------------------------------------------------|
D|-------------------------------------------------------------------------|
A|-------------------------------------------------------------------------|
E|-------------------------------------------------------------------------|

[Last Chorus]
guitar 1

e|------------------------|
B|------------------------|
G|-4----3----2------------|
D|-4----4----2----6-------| 
A|-2----2----0----6-------| 
E|----------------4-------|

guitar 2

e|-----------|
B|-/5-4------|
G|------6-4--|  (9x)
D|-----------| 
A|-----------| 
E|-----------|



************************************

| p  Pull-off
| /  Slide up
| h  Hammer-on
| \  Slide down
| x  Dead note

************************************

            
            
Suggest correction
Creating personal tab
Creating personal tab
You can edit any tab online and save it as your Personal.

You can edit, replace or remove any tab part or add personal notes – all changes will be seen only by you.

Personal tabs can be accessed anytime from any device, even offline.
Learn more »
comments
print report bad tab
17 comments total. Showing first comments.
0 reply
vertical_strato 30 Jan 27, 2006 01:30 AM

this one sounds good,kesa dun sa isa..
keep rockin..

0 reply
jnalerma 30 Feb 03, 2006 11:33 AM

maganda ito... hehehe ano band name niyo? antay ko kayo.. hehehe jnalerma@yahoo.com

0 reply
Dave_17 324 Jun 27, 2006 05:13 PM

hi! mali yung chords mo sa verse, chorus!
e|------------------------|
B|------------------------|
G|-4----4----2------------|
D|-4----4----2----6-------|
A|-2----1----0----6-------|
E|----------------4-------|
try mo ito!
mas accurate ito! goodluck sa banda niyo!

guest
You may want to rate the tab now too:
select rating
Wanna post a correction for this tab? Suggest correction