Oops, an error
Loading. Please wait.

Broken Sonnet Tab

version 3
version 3
by Hale
1,074 views 6 this week
no commentswrite comment
1 2 3 4 5
not so good
x 1
add to favorites
launch autoscroll
font size
0
reset
how to read this tab
guitar tuner
Tab Pro tools
  • play this tab
  • loop segment
  • change instrument
  • show fretboard
  • metronome
Autoscroll
slow
fast
+/-
esc
set tempo
stop
Author/Artist: Hale (first release)
Title: Broken Sonnet
Transcribed by: Leo Angelo Brunio
Email: laughtonmax@yahoo.com

**********************************
*UPDATED VERSION (April 6, 2005)*
**********************************

TUNING: (im not sure with the tuning but it seems it is half step lower than standard)
	
        Eb Ab Db Gb Bb eb

CHORDS:
    Em    G    D/F#(D) C9   Am      Bm
eb|--3----3----3--------3----3------3-----|
Bb|--3----3----3--------3----3------3-----|
Gb|------------2--------------------------|
Db|--2------------------2----2------------|
Ab|--2----2-------------3-----------2-----|
Eb|-------3----2-------------x------x-----|
                                    
*D/F# can also be D


++++INTRO:++++

Guitar1: lead
|-------------------------------------------------------------------------------|
|-------------------------------------------------------------------------------|
|-------0-----0-------------0------0------------0-----0-----------0-----0-------|
|-----0---0-----0---------0---0------0--------0---0-----0-------0---0-----0-----|
|--7--------7-------9-10--------10-------9-5--------5-------2-3-------3------3/7|
|-------------------------------------------------------------------------------|


+++++VERSE:+++++
                                                                              
Guitar2: chords 
   Em      G       D       C9
|--3-------3-------3-------3--------|\
|--3-------3-------3-------3--------| \
|------------------2----------------|  \  4x
|--2-----------------------2--------|  / 
|--2-------2---------------3--------| / 
|----------3------------------------|/

Guitar1: lead (4x, omit 3/7 before going to pre-chorus)
|-------------------------------------------------------------------------------|
|-------------------------------------------------------------------------------|
|-------0-----0-------------0------0------------0-----0-----------0-----0-------|
|-----0---0-----0---------0---0------0--------0---0-----0-------0---0-----0-----|
|--7--------7-------9-10--------10-------9-5--------5-------2-3-------3------3/7|
|-------------------------------------------------------------------------------|

   And now i concede.......

                                                                              
+++++PRE-CHORUS:+++++

Guitar2: chords
   Am    Bm     C9-----          Em    D     C9-----
|--3-----3------3------------|---3-----3-----3------------|
|--3-----3------3------------|---3-----3-----3------------|
|----------------------------|---------2------------------|
|--2------------2------------|---2-----------2------------|
|--------2------3------------|---2-----------3------------|
|--x-----x-------------------|----------------------------|

Guitar1: lead
	Am               Bm               C9	
-----|----------------------------------------------------------------------------------|
-----|----------------------------------------------------------------------------------|
-----|------0---------0----------0---------0---------0---------0---------0---------0----|
-----|----0---0-----0---0------0---0-----0---0-----0---0-----0---0-----0---0-----0---0--|
--2--|-0---------0----------2---------2---------3---------3---------3---------3---------|
-----|----------------------------------------------------------------------------------|
           I dont care what they say..... 

    Em	           D               C9 
|----------------------------------------------------------------------------------------|
|----------------------------------------------------------------------------------------|
|-------0---------0-----------0---------0----------0---------0----------0----------0-----|
|-----0---0-----0---0-------0---0-----0---0------0---0-----0---0------0---0------0---0---|
|-----------------------5----------5----------3---------3----------3----------3----------|
|--0---------0---------------------------------------------------------------------------|
   I dont care what they do.....


+++++CHORUS:+++++
    Em    D      C9----
|--3-----3------3----------|\
|--3-----3------3----------| \
|--------2-----------------|  \  2x
|--2------------2----------|  /
|--2------------3----------| /
|--------------------------|/
  'cause tonight I leave my fears......
                                                    

+++++BRIDGE:+++++
   G      D      C9----
|--3------3------3----------|\
|--3------3------3----------| \
|---------2-----------------|  \  2x
|----------------2----------|  /
|--2-------------3----------| /
|--3------------------------|/
  Lie down right next to me.....



+++++ADLIB1+++++
Guitar2: chords (Em-D-C9) 2x

Guitar1:lead 

    Em        D        C9  
|-------------------------|----------2-3-5/7-7/8-10/12-12vv---|
|--------/8-------/8------|------3h5--------------------------|
|---9---------7--------5--|---5h7-----------------------------|
|-------------------------|-----------------------------------|
|-------------------------|-----------------------------------|
|-------------------------|-----------------------------------|
 
|---15v-----------------15vv-|
|-------15v-15-15-13-12------|
|----------------------------|
|----------------------------|
|----------------------------|
|----------------------------|

+++++ADLIB2+++++
Guitar2: chords (Em-D-C9)

Guitar1:lead
           Em            D            C9
--3-3-3--|-2h3-3--3-3p2-------2-2-2h3-3-3-3p2--2h3-10---|
--3-3-3--|-------------3-3--3---------------------------|
--0-0-0--|----------------------------------------------|
---------|----------------------------------------------|
---------|----------------------------------------------|
---------|----------------------------------------------|

+++++OUTRO+++++
Guitar2: chords (C9-G-D)
		(Em-D-C9)
		(Am-Bm-C9-D-Em-D/F#-G)

Guitar1: lead
  C9         G        D   
|---------------------------------------------|
|---------------------------------------------|
|------0---------0---------0---------0--------|
|----0---0-----0---0-----0---0-----0---0------|
|--3-------------------5---------5------------|
|------------3--------------------------------|
   But still I see...

   Em        D         C9                                
|---------------------------------------------|
|---------------------------------------------|
|------0---------0---------0---------0--------|
|----0---0-----0---0-----0---0-----0---0------|
|------------5---------3---------3------------|
|--0------------------------------------------|
   The tears from your eyes...       

   Am       Bm        C9        D        Em          D/F#       G
|-------------------------------------------------------------------|
|-------------------------------------------------------------------|
|------0--------0---------0---------0---------0----------0----------|
|----0---0----0---0-----0---0-----0---0-----0---0------0---0--------|
|--0--------2---------3---------5-----------------------------------|
|-----------------------------------------0----------2----------3---|
   Maybe    Im just             not the   one        for        you.

END.
comments
We did not receive enough feedback on this tab! Please rate:
print report bad tab
1 2 3 4 5
I want to post or [tab]
guest
You may want to rate the tab now too:
select rating
Please do not post tabs as comments. Select "correction" instead!